Tommy Lee - Hold Me Down Chords & Tabs

 

Hold Me Down Chords & Tabs

Tommy Lee Chords & Tabs

Version: 3 Type: Tab 0 ratings
1 star 2 stars 3 stars 4 stars 5 stars
comments

Hold Me Down Tab

This is my first tab so sorry for any mistakes….but I had to do it cause it’s
a great song and I haven’t been able to find a good tab for it…

Standard Tuning


Intro/Verse – Guitar 1 - Acoustic
								
E-----------|-----------|-----------|----------|
B--9--7--7--|--9--7--7--|--9--7--7--|--12------|
G--8--6--4--|--8--6--4--|--8--6--4--|---9------|
D--6--4--4--|--6--4--4--|--6--4--4--|---9------|
A-----------|-----------|-----------|----------|
E-----------|-----------|-----------|----------|

Intro/Verse – Guitar 2 – Clean Electric

E-----------|-----------|-----------|----------|
B-----------|-----------|-----------|----------|
G--6--------|--4--------|--6--------|--4-------|
D--6--------|--4--------|--6--------|--4-------|
A--4--------|--2--------|--4--------|--2-------|
E--4--------|--2--------|--4--------|--2-------|

Chorus/Bridge – Guitars 1 & 2 – Heavy Distortion
[ Tab from: http://www.guitartabs.cc/tabs/t/tommy_lee/hold_me_down_tab_ver_3.html ]
E---------------------------------------------------|
B---------------------------------------------------|
G--6666666666-4444444444-66666666666-4444444--------|
D--6666666666-4444444444-66666666666-4444444-777777-|
A--4444444444-2222222222-44444444444-2222222-777777-|
E--4444444444-2222222222-44444444444-2222222-555555-|

Solo in first half of Bridge Guitar 3

E------------|------------|------------|---------|
B--2-4-9-7~~-|--2-4-7-9~~-|--2-4-9-7~~-|--12~~~~-|
G------------|------------|------------|---------|
D------------|------------|------------|---------|
A------------|------------|------------|---------|
E------------|------------|------------|---------|

Song Goes

Intro x1
Verse x2
Chorus x2
Intro x1 (w/ distortion and flanger I think instead of acoustic)
Verse x 2
Chorus x2
Bridge x3 (first time with solo, second and third singing “I am sinking……)
Chorus x 2
End on A5
Comments