Tommy Lee - Hold Me Down Chords & Tabs

 

Hold Me Down Chords & Tabs

Tommy Lee Chords & Tabs

Version: 2 Type: Tab 0 ratings
1 star 2 stars 3 stars 4 stars 5 stars
comments

Hold Me Down Tab

I haven't seen any tabs for this song, and though mine may not be all correct I
figured I would tab it out anyways. Maybe somebody can work off of what I post.
There are 2 or 3 guitars playing but I got it to where you can make it sound like
the song with out using 3 guitars.

You need to listen to the song for strumming pattern!!!
[ Tab from: http://www.guitartabs.cc/tabs/t/tommy_lee/hold_me_down_tab_ver_2.html ]
Intro/Verse:
E|--4-4-4s7-7-7-|      Do this a few times
B|--4-4-4s7-7-7-|      for the verses. Then
G|--6-6-6s9-9-9-|      for the chorus they kick
D|--6-6-6s9-9-9-|      in the distortion.
A|--4-4-4s7-7-7-|
E|--4-4-4s7-7-7-|

Chorus:
E|--X-X-XsX-X-X----X-X-XsX-X-XsX-X-X-|
B|--X-X-XsX-X-X----X-X-XsX-X-XsX-X-X-|
G|--X-X-XsX-X-X----X-X-XsX-X-XsX-X-X-|
D|--6-6-6s9-9-9----6-6-6s9-9-9s4-4-4-|
A|--6-6-6s9-9-9----6-6-6s9-9-9s4-4-4-|
E|--4-4-4s7-7-7----4-4-4s7-7-7s2-2-2-|

Well it's like that. You definitely need to listen to the strumming pattern though
to get the timing right, cause I can't tab the timing...too much work. Well just go
off this it should give you a start. Thanks!!!
Comments