Tommy Lee - Good Times Chords & Tabs

 

Good Times Chords & Tabs

Tommy Lee Chords & Tabs

Version: 1 Type: Tab 4 ratings
1 star 2 stars 3 stars 4 stars 5 stars
comments

Good Times Tab

   
Tommy Lee - Good Times
Tabber: Trojanman1572 
Standard Tuning: E-A-D-G-B-E

This is how I play it and it sounds pretty good, really easy to learn too.
I hope it comes out right...

Listen to song for exact strumming pattern

Intro / Verse

   G  G G G  Dsus D    C  C C C  C   
e|-3--3-3-3--0--2-3-2--0--0-0-0--0-
B|-3--3-3-3--3--3-3-3--1--1-1-1--1-
G|-0--0-0-0--2--2-2-2--0--0-0-0--0-
D|-0--0-0-0--0--0-0-0--2--2-2-2--2-
A|-2--2-2-2------------3--3-3-3--3-
E|-3--3-3-3------------------------

Chorus
[ Tab from: http://www.guitartabs.cc/tabs/t/tommy_lee/good_times_tab.html ]
   G     D     C     C   
e|-3-----2-----0-----0---------
B|-3-----3-----1-----1---------
G|-0-----2-----0-----0---------
D|-0-----0-----2-----2--------- x4
A|-2-----------3-----3---------
E|-3---------------------------

Solo

e|----------------10-----------
B|-8---10---10--8--------------
G|---7----7--------------------
D|-----------------------------
A|-----------------------------
E|-----------------------------

Bridge

e|---------7--3-----------7--3--
B|------3--------------3--------
G|---0--------------0-----------
D|-2---------------------------- x4
A|----------------0-------------
E|------------------------------


Comments