Tommy Emmanuel - Those Who Wait Chords & Tabs

 

Those Who Wait Chords & Tabs

Tommy Emmanuel Chords & Tabs

Version: 1 Type: Tab

Those Who Wait Tab

i couldnt find a good tab for this song so i decided to tab it out myself this is my 
tab so bear with me if i make a mistake but ive listened to the song several times so i 
this is right, Tune the low E string to a drop D played with fingers or finger picks.
 Intro:
e--------------------------------------------------|
B----------3------------------1-------1------------|
G--------0---0---0----------0--------0-------------|     play several times
D------4-------4---------3---------5---------------|
A----5---------------------------------------------|
D--0-----------------3-----------5-----------------|

[ Tab from: http://www.guitartabs.cc/tabs/t/tommy_emmanuel/those_who_wait_tab.html ]
e---------3-0-1-------------------------------3-0-1-------------------------|
B----------------3-------1-0------------------------0-1-0-1-3---------------|
G----------------------------2-0-2-----------------------------2------------|
D------4--------------3-------------------4---------------------------------|
A----5---------------0------------------5-----------------------------------|
D--0----------------3-----------------0-------------------------------------|            
                                                                Sorry that i didnt tab 
the whole song but i havent figured it all out yet. Please rate my tab. Thanks, Evan.