Tommy Emmanuel - Stevies Blues Chords & Tabs

 

Stevies Blues Chords & Tabs

Tommy Emmanuel Chords & Tabs

Version: 3 Type: Tab 0 ratings
1 star 2 stars 3 stars 4 stars 5 stars
comments

Stevies Blues Tab

   
Stevies Blues
Tabbed By: Gordon McGrath


			      A        E
e|---------------3-0-----------------------|
B|----------3-5---------------2------------|
G|-----2/4-----------2h3p2p---2--------1---|
D|----------------------------2--------2---|
A|------------------------------0------2---|
E|--------------------------3b----3b-------|

			      A        E
e|---------------3-0-----------------------|
B|----------3-5---------------2------------|
G|-----2/4-----------2h3p2p---2--------1---|
D|----------------------------2--------2---|
A|------------------------------0------2---|
E|--------------------------3b----3b-------|

		             A         A
e|---------------3-0------------5-7--------|
B|----------3-5--------------2--5-7----2---|
G|-----2/4-----------2h3p2p--2--5-7----2---|
D|---------------------------2--5-7----2---|
A|------------------------------3p5p-------|
E|-----------------------------------------|
[ Tab from: http://www.guitartabs.cc/tabs/t/tommy_emmanuel/stevies_blues_tab_ver_3.html ]
		              A        E
e|---------------3-0-----------------------|
B|----------3-5---------------2------------|
G|-----2/4-----------2h3p2p---2--------1---|
D|----------------------------2--------2---|
A|------------------------------0------2---|
E|--------------------------3b----3b-------|

  strum down then up stroke on notes				            
e|--3b3b-3b-------------3p-----------5----|
B|--3b-3b-3b------------------------3-3---|
G|------------2h3p2p-----2----------3---3--|
D|-x--x--x---------------1---2-0-2---------|
A|-x--x--x------------2h-2---2-------------|
E|-x--x--x----------0----------------------|
  (x)Mute with thumb
		     A		 E   	
e|----------------------------------------|
B|------------------2---------------------|
G|--2h3p2p-----------2-----------1---------|
D|----------2-----2--2-----------2---------|
A|----------------------0--------2---------|
E|-------------3b-----------3b-------------|

The rest of the song is improvised 
 
 /  slide 
 h  hammer-on
 p  pull-off
 x  mute
Comments