Tommy Emmanuel - Stevies Blues Chords & Tabs

 

Stevies Blues Chords & Tabs

Tommy Emmanuel Chords & Tabs

Version: 2 Type: Tab 0 ratings
1 star 2 stars 3 stars 4 stars 5 stars
comments

Stevies Blues Tab

   
-------------------------------------------------------------------------------
			     Stevies Blues - Tommy Emmanuel
-------------------------------------------------------------------------------
Tabbed by:Slash_7
Email:slash_seven_coulter@hotmail.com
I figured this tune out of the tommy emmanuel's "up close" tutorial DVD.
He wrote this song as a tribute to Stevie Ray Vaughan and is a blues so dont play
it too fast.I think its pretty close to the recording anyway enjoy.I tabbed it 
on an acoustic but sounds sic on electric.

Tuning: standard tuning

e|-----------------5--2h3-----------------|
B|----------3---5----------5--------------|
G|-----2/3--------------------4---2p0-----|
D|-------------------------------------2--|
A|----------------------------------------|
E|----------------------------------------|
  
e|---------------------------------------|
B|---------------------2---2-------------|
G|---------------------2---2----------1--| 
D|---------------------2---2----------0--|
A|---------------------0--------------2--|
E|-----0--0--3b(3)-p0----------3b(3)--0--|
repeat first part then change to the (A)chord
e|-----------------5---2h3-----------------|
B|----------3--5-------------5-------------|
G|-----2/3----------------------4--2h0-----|
D|--------------------------------------2--|
A|-----------------------------------------|
E|-----------------------------------------|
[ Tab from: http://www.guitartabs.cc/tabs/t/tommy_emmanuel/stevies_blues_tab_ver_2.html ]
e|---------------------------------------|
B|---------------------------------------|
G|-----------------------1--1---------2--|
D|-----------------------0--0---------2--|
A|----0---0---3b(3)-p-0--------3b(3)--0--|
E|---------------------------------------|

e|------------------5--2h3-------------------|
B|----------3---5-----------5----------------|
G|-----2/3----------------------4---2h0------|
D|---------------------------------------2---|
A|-------------------------------------------|
E|----------------------------------------|
B|---------------------2---2-----------1--|
G|---------------------2---2-----------0--|
D|---------------------2---2-----------2--|
A|---------------------0---------------0--|
E|----0---0--3b(3)-p0----------3b-(3)-----|

e|---------3---3---3b(3)--p0------------------------0--|
B|----x----2---2---2---------------------3----3b(3)----|
G|----x----2---2---2----------2p0--------2----2b(2)----|
D|----x----------------------------------x----x--------|
A|----x------x----x----------------1-2-----2-----------|
E|----x------x----x------------------------------------|
 mute the bottom notes with your thumb
e|-----------------5h3p0------------------------------------------|
B|---2----------4--------4-2p0---------------2--2-----------------|
G|---2--------3------------------------------2--2--------1-1-1-1--|
D|---3----0-2--------------------------------2--2--------2-2-2-2--|
A|---2---------------------------------------0-----------2-2-2-2--|
E|------------------------------0--0-3b(3)p0-------3b(3)-0-0-0-0--|
  back to start then play through to the solo:
 
| /  slide up
| \  slide down
| h  hammer-on
| p  pull-off
| ~  vibrato
| +  harmonic
| x  Mute note
===============================================================================
Comments