Tommy Emmanuel - Stevies Blues Chords & Tabs

 

Stevies Blues Chords & Tabs

Tommy Emmanuel Chords & Tabs

Version: 1 Type: Tab 0 ratings
1 star 2 stars 3 stars 4 stars 5 stars
comments

Stevies Blues Tab

At last i will giv you some bits of this song. i dont know all of it yet.
but its an kool song so..


e -------5-3--------------------------------
b ----3-5-----------------------------------
g -2/4------4/2p0---------1-1---2-2---1-----     x2
d ---------------2~-------2-2---2-2---2-----
a ------------------------2-2---0-0---2-----
e ------------------------0-0-3-----3-0-----

on the second time around you change the kinda chordy part 2 this

E -----------------
B -----------------
G -2-2---2-2---2---
D -2-2---0-0---2---
A -0-0-3-----3-0---
E -----------------
[ Tab from: http://www.guitartabs.cc/tabs/t/tommy_emmanuel/stevies_blues_tab.html ]
then...         /strum this chord as many times as needed. up and down strokes.        /
               / 
E-2-2-2-2-----0---------------------------------------5-3-------
B-2-2-2-2-----3------------------------------------3-5----------
G-2-2-2-2-----2---------------------------------2/4------4/2p0--
D-2-2-2-2-----1----------2-2-2-2-2-2-2-2-2-2-2----------------2~
A-------------2----------2-2-2-2-2-2-2-2-2-2-2------------------
E------------------------0-0-0-0-0-0-0-0-0-0-0------------------

                  paml mute-----------------


 ill post the rest wen i learn it
Comments