Tommy Emmanuel - Guitar Boogie Chords & Tabs

 

Guitar Boogie Chords & Tabs

Tommy Emmanuel Chords & Tabs

Version: 1 Type: Tab 0 ratings
1 star 2 stars 3 stars 4 stars 5 stars
comments

Guitar Boogie Tab

   
Tommy Emmanuel - Guitar Boogie
Tabbed by: Gordon McGrath

E ---------------------|--------------------|----------------------|-----------------|
B ---------------------|--------------------|----------------------|-----------------|
G ---------------------|--------------------|----------------------|-----------------|
D ---------------------|--22----------------|----------------------|-----------------|
A -------------22--42--|------44----22---2--|-------------22---42--|--55-44--22---2--|
E --00----44-----------|---------------4--- |---00-----44----------|-------------4---|

    A
E------------------|-------------------|----------------------|----------------------|
B------------------|-------------------|----------------------|----------------------|
G------------------|-------------------|----------------------|----------------------|
D-----------22--42-|-5----54---2-------|----------------------|----22----------------|
A--00---44---------|---------------42--|--------------22---42-|--------44-----22-----|
E------------------|-------------------|--00---44-------------|------------------45--|


B7                   A                     E                  B7
E------------------|----------------------|-----3-0-----------|------------------||
B------------------|----------------------|-------------------|------------------||
G------------------|----------------------|------------2-0----|--2h0-------------||
D------------------|----------------------|-------------------|-------2----------||
A---22---44--55-44-|---2h4ho2------2------|-------------------|------------------||
E------------------|-----------55-4---42--|--0----------------|------------------||
[ Tab from: http://www.guitartabs.cc/tabs/t/tommy_emmanuel/guitar_boogie_tab.html ]
    E
E ---------------------|--------------------|----------------------|-----------------|
B ---------------------|--------------------|----------------------|-----------------|
G -------------------- | -------------------|----------------------|-----------------|
D ---------------------|--22----------------|----------------------|--22-------------|
A -------------22--44--|------44----22------|-------------22---44--|-----44--22------|
E --00----44-----------|---------------44---|---00-----44----------|-------------44--|
			(2x) times
   A
E------------------|-------------------|----------------------|----------------------|
B------------------|-------------------|----------------------|----------------------|
G------------------|-22----------------|----------------------|----------------------|
D-----------22--44-|------44--22-------|----------------------|----22----------------|
A--00---44---------|---------------44--|--------------22---44-|--------44-----22-----|
E------------------|-------------------|--00---44-------------|-----------44---------|

 B7                   A                     E                  B7
E------------------|----------------------|-------------------|----------------------|
B------------------|----------------------|-------------------|----------------------|
G------------------|----------------------|------------------ |----------------------|
D------------------|----------------------|-------------------|-2--------------------|
A---22---44-55-44--|---22--00-------------|----------22---42--|----012---10----------|
E------------------|-----------44-22------|--00 44------------|----------------3-----|

This is what I was able to make out from watching his types (Sheldon Concert Hall).  The 
line is tricky with the chord formation, but if you listen to the song you might be 
to figure it out.
Comments