Tomahawk - Pop Chords & Tabs

 

Pop Chords & Tabs

Tomahawk Chords & Tabs

Version: 1 Type: Bass Tab 0 ratings
1 star 2 stars 3 stars 4 stars 5 stars
comments

Pop Bass Tab

Intro:(x2)
        
             (x3)                (x3)
G|--------------|-------------------|
D|--------------|-------------------|    (x2)
A|--3-3---3--3--|-------------------|
E|--------------|----5-5---5---5----|
      
                 (x3)                (x3)
G|------------------|-------------------|
D|------------------|-------------------|   (x2)
A|------------------|-------------------|
E|----3-3----3----3-|---0-0-----0---0---|
        
Chorus:   
This beat could win me a grammy!
G|-----------------------|
D|-----------------------|
A|-----------------------|
E|----0-0-3-0-3-0-3-0----|

The gap is so wide and the whole is so big ...
G|------------------------------------------------|
D|------------------------------------------------|
A|--1/-4--4(x12)------1/-4--1/-4-1/-4--4(x12)-----|
E|------------------------------------------------|

This beat could win me a grammy ...
A|-----------------|
E|--0-0---0---0-0--|
Go back to intro

--------------------------------------------------------------------------------
[ Tab from: http://www.guitartabs.cc/tabs/t/tomahawk/pop_btab.html ]
Comments