Tomahawk - Point And Click Chords & Tabs

 

Point And Click Chords & Tabs

Tomahawk Chords & Tabs

Version: 2 Type: Bass Tab 0 ratings
1 star 2 stars 3 stars 4 stars 5 stars
comments

Point And Click Bass Tab

G|---------------------------------|
D|---------------------------------|
A|-------------7/8-8-8-8-8-8-8-7---|
E|---0-0-0-0-----------------------|
              Them Scum Bags......
[ Tab from: http://www.guitartabs.cc/tabs/t/tomahawk/point_and_click_btab_ver_2.html ]
G|-------------------------------------------|
D|-------------------------------------------|
A|-----7-7--------------------7-7------------|
E|------------0-0-0------------------0-0-0---|
              hahohaoho....

G|-------------------------------------------------------------------|
D|-------------------------------------------------------------------|
A|------7-7-7-7-7-7--------------------------------------------------|
E|-----------------------8-8-8-8-8-8-----6-6-6-6-6-6-----3-3-3-3-3-3-|
                 I?ll Be There..........

--------------------------------------------------------------------------------
Comments