Tomahawk - Flashback Chords & Tabs

 

Flashback Chords & Tabs

Tomahawk Chords & Tabs

Version: 1 Type: Tab 0 ratings
1 star 2 stars 3 stars 4 stars 5 stars
comments

Flashback Tab

   
Guitar is tuned EADGBe

Intro 

e-|-5-5-5-5-5-5-5-5-5-5-5-5-5-5-5-5-|-5-5-5-5-5-5-5-5-5-5-5-5-5-5-5-5-|-> harmonics


e-|-5-5-5-5-5-5-5-5-5-5-5-5-5-5-5-5-|---------------------------------|-> harmonics
B-|---------------------------------|---------------------------------|
G-|---------------------------------|-------------------------------2-|-> palm mute

Verse (throughout palm muted):
    
G-|---2-------2---2---2-------2---0-|---0-------0---0---0-------0-----|
D-|-----1---0---0-------1---0---0---|-----1---0---0-------1---0---0-4-|
A-|-------3---------------3---------|-------3---------------3---------|

G-|---------------------------------|-------------------------------2-| 
D-|---4-1---2-4-2-4---4-1---2-4-2-3-|---3-1---0-3-0-------0-1-1-1-1---| 
A-|-------4---------------4---------|-------3-------3-3-3-------------| 

G-|---2-------2---2---2-------2---0-|---0-------0---0---0-------0-----|
D-|-----1---0---0-------1---0---0---|-----1---0---0-------1---0---0-4-|
A-|-------3---------------3---------|-------3---------------3---------|

G-|---------------------------------|---------------------------------| 
D-|---4-1---2-4-2-4---4-1---2-4-2-3-|---3-1---0-3-0-------0-1-1-1-1---| 
A-|-------4---------------4---------|-------3-------3-3-3-----------0-| 
                                                                    ^Release PM

Chorus:

G-|---2-------2-------0-------0-----|-----------0---------------------|
D-|-----1-------0-------1-------0---|---4-1-------4-3---3-3-3---3-----|
A-|-------3-5-----0-------3-5-----0-|-------3-5-----3---3-5-6-----6-0-|

G-|---2-------2-------0-------0-----|-----------0---------------------|
D-|-----1-------0-------1-------0---|---4-1-------3-3---3-3-3---3-----|
A-|-------3-5-----0-------3-5-----0-|-------3-5-----3---3-5-6-----6---|
E-|---------------------------------|-------------------------------0-|
[ Tab from: http://www.guitartabs.cc/tabs/t/tomahawk/flashback_tab.html ]
D-|---2-------2-------0-------0-----|-------------0-------------------|
A-|-----1-------0-------1-------0---|---4-1-----4---3---3-3-3---3-----|
E-|-------3-5-----0-------3-5-----0-|-------3-5-----3---3-5-6-----6-2-|

D-|---4-------4-------2-------2-----|---1-------1---0---0-0-0---0---0-|
A-|-----3-0-2-----------3-0-2-------|-----3-0-2---2-0---0-2-3-----3---|
E-|---------------2---------------2-|---------------------------------|

B-|---3-------3-------1-------3-----|---0-------3---3---3-3-3---3-3-3-|-3-3-3-3-3-3-3---|
G-|-----1-------0-------1-------0---|-----1-------0-3---3-3-3---3-3-3-|-3-3-3-3-3-3-3-2-|
D-|-------3-5-----0-------3-5-----0-|-------3-5-----3---3-5-6---6-6-6-|-6-6-6-6-6-6-6---|
                                                                                      ^PM
                                                                                      To #
Bridge 
e-|-5-5-5-5-5-5-5-5-5-5-5-5-5-5-5-5-|-> harmonics 
              repeat 6 times

A-|-------------------------------0-|

G-|---2---------2-----0---------0---|-------------0-------------------|
D-|-----1-----0---------1-----0-----|---4-1-----4---3---3-3-3---3-----|
A-|-------3-5-----0-------3-5-----0-|-------3-5-----3---3-5-6-----6-0-|

G-|---2---------2-----0---------0---|-------------0-------------------|
D-|-----1-----0---------1-----0-----|---4-1-----4---3---3-3-3---3-----|
A-|-------3-5-----0-------3-5-----0-|-------3-5-----3---3-5-6-----6---|
E-|---------------------------------|-------------------------------0-|

D-|---2---------2-----0---------0---|-------------0-------------------|
A-|-----1-----0---------1-----0-----|---4-1-----4---3---3-3-3---3---0-|
E-|-------3-5-----0-------3-5-----0-|-------3-5-----3---3-5-6-----6---|

G-|---2---------2-----2---------2---|---2---------2-----2---------2---|
D-|-----1-----0---------1-----0-----|-----1-----0---------1-----0---0-|
A-|-------3-5-----0-------3-5-----0-|-------3-5-----0-------3-5-------|

G-|---2---------2-----2---------2---|---------------------------------|
D-|-----1-----0---------1-----0-----|-7-7-7-7-7-7-7-7-7-7-7-7-7-7-7-7-|
A-|-------3-5-----0-------3-5-----0-|-0-0-0-0-0-0-0-0-0-0-0-0-0-0-0-0-|

D-|-7-7-7-|
A-|-0-0-0-|
Comments