Tomahawk - Cul De Sac Chords & Tabs

 

Cul De Sac Chords & Tabs

Tomahawk Chords & Tabs

Version: 2 Type: Tab 0 ratings
1 star 2 stars 3 stars 4 stars 5 stars
comments

Cul De Sac Tab

   
NOTE: There are two tabs here. One to play the song in standard tuning,
and one dropped a semi-tone. (The song is most likely played dropped but
is easy to play in standard.)

Guitar standard tuning (low to high: E A D G B E)

Guitar has some sort of detuning going on. You can replicate this
with a Digitech Wammy pedal.

Intro

E|--------------------------------|
B|--------------------------------|
G|--------------------------------|
D|----1-------1-------1-------1---|
A|--------2^3-------------2^3-----|
E|4---------------4---------------|

E|--------------------------------|
B|--------------------------------|
G|----1-------1-------1-------1---|
D|--------2^3-------------2^3-----|
A|4-------------------------------|
E|--------------------------------|

E|--------------------------------|
B|--------------------------------|
G|--------------------------------|
D|----1-------1-------1-------1---|
A|--------2^3-------------2^3-----|
E|4---------------4---------------|

E|--------------------------------|
B|--------------------------------|
G|----1-------1---4-------3---1---|
D|--------2^3---------------------|
A|4-------------------4-----------|
E|--------------------------------|

E|--------------------------------|
B|--------------------------------|
G|--------------------------------|
D|----1-------1-------1-------1---|
A|--------2^3-------------2^3-----|
E|4---------------4---------------|

E|--------------------------------|
B|--------------------------------|
G|----1-------1-------1-------1---|
D|--------2^3-------------2^3-----|
A|4-------------------------------|
E|--------------------------------|

E|--------------------------------|
B|--------------------------------|
G|----1-------1-------1-------1---|
D|--------2^3-------------2^3-----|
A|4-------------------------------|
E|--------------------------------|

Verse 1

E|--------------------------------|
B|--------------------------------|
G|--------------------------------|
D|----1-------1-------1-------1---|
A|--------2^3-------------2^3-----|
E|4-------------------------------|

E|--------------------------------|
B|--------------------------------|
G|--------------------------------|
D|----1-------1-------1-------1---|
A|--------2^3-------------2^3-----|

E|--------------------------------|
B|--------------------------------|
G|--------------------------------|
D|----1-------1-------1-------1---|
A|--------2^3-------------2^3-----|
E|4-------------------------------|

E|--------------------------------|
B|--------------------------------|
G|--------------------------------|
D|----1-------1-------1-------1---|
A|--------2^3-------------2^3-----|
E|4-------------------------------|

E|--------------------------------|
B|--------------------------------|
G|----3-------3-------3-------3---|
D|--------4^5-------------4^5-----|
A|6---------------6---------------|
E|--------------------------------|

E|--------------------------------|
B|--------------------------------|
G|----3-------3-------3-------1---|
D|--------4^5-------------4^5-----|
A|6---------------6---------------|
E|--------------------------------|

E|--------------------------------|
B|--------------------------------|
G|--------------------------------|
D|----1-------1-------1-------1---|
A|--------2^3-------------2^3-----|
E|4-------------------------------|

E|--------------------------------|
B|--------------------------------|
G|--------------------------------|
D|----1-------1-------1-------1---|
A|--------2^3-------------2^3-----|
E|4-------------------------------|

E|--------------------------------|
B|--------------------------------|
G|----3-------3-------3-------3---|
D|--------4^5-------------4^5-----|
A|6---------------6---------------|
E|--------------------------------|

E|--------------------------------|
B|--------------------------------|
G|----3-------3-------------------|
D|--------4^5-------4-------3-----|
A|6---------------6---6---5---5---|
E|--------------------------------|

E|--------------------------------|
B|--------------------------------|
G|----1-------1-------1-------1---|
D|--------2^3-------------2^3-----|
A|4-------------------------------|
E|--------------------------------|

E|--------------------------------|
B|--------------------------------|
G|----1-------1-------1-------1---|
D|--------2^3-------------2^3-----|
A|4-------------------------------|
E|--------------------------------|

E|--------------------------------|
B|--------------------------------|
G|----1-------1-------1-------1---|
D|--------2^3-------------2^3-----|
A|4---------------4---------------|
E|--------------------------------|

E|--------------------------------|
B|--------------------------------|
G|----1-------1-------1-------1---|
D|--------2^3-------------2^3-----|
A|4---------------4---------------|
E|--------------------------------|

Chorus 1

E|--------------------------------|
B|--------------------------------|
G|--------------------------------|
D|----1-------1-------1-------1---|
A|--------2^3-------------2^3-----|
E|4---------------4---------------|

E|--------------------------------|
B|--------------------------------|
G|----1-------1-------1-------1---|
D|--------2^3-------------2^3-----|
A|4-------------------------------|
E|--------------------------------|

E|--------------------------------|
B|--------------------------------|
G|--------------------------------|
D|----1-------1-------1-------1---|
A|--------2^3-------------2^3-----|
E|4---------------4---------------|

E|--------------------------------|
B|--------------------------------|
G|----1-------1---4-------3---1---|
D|--------2^3---------------------|
A|4-------------------4-----------|
E|--------------------------------|

E|--------------------------------|
B|--------------------------------|
G|--------------------------------|
D|----1-------1-------1-------1---|
A|--------2^3-------------2^3-----|
E|4---------------4---------------|

E|--------------------------------|
B|--------------------------------|
G|----1-------1-------1-------1---|
D|--------2^3-------------2^3-----|
A|4-------------------------------|
E|--------------------------------|

E|--------------------------------|
B|--------------------------------|
G|----1-------1-------1-------1---|
D|--------2^3-------------2^3-----|
A|4-------------------------------|
E|--------------------------------|

Verse 2

E|--------------------------------|
B|--------------------------------|
G|--------------------------------|
D|----1-------1-------1-------1---|
A|--------2^3-------------2^3-----|
E|4-------------------------------|

E|--------------------------------|
B|--------------------------------|
G|--------------------------------|
D|----1-------1-------1-------1---|
A|--------2^3-------------2^3-----|
E|4-------------------------------|

E|--------------------------------|
B|--------------------------------|
G|----3-------3-------3-------3---|
D|--------4^5-------------4^5-----|
A|6---------------6---------------|
E|--------------------------------|

E|--------------------------------|
B|--------------------------------|
G|----3-------3-------3-------1---|
D|--------4^5-------------4^5-----|
A|6---------------6---------------|
E|--------------------------------|

E|--------------------------------|
B|--------------------------------|
G|--------------------------------|
D|----1-------1-------1-------1---|
A|--------2^3-------------2^3-----|
E|4-------------------------------|

E|--------------------------------|
B|--------------------------------|
G|--------------------------------|
D|----1-------1-------1-------1---|
A|--------2^3-------------2^3-----|
E|4-------------------------------|

E|--------------------------------|
B|--------------------------------|
G|----3-------3-------3-------3---|
D|--------4^5-------------4^5-----|
A|6---------------6---------------|
E|--------------------------------|

E|--------------------------------|
B|--------------------------------|
G|----3-------3-------------------|
D|--------4^5-------4-------3-----|
A|6---------------6---6---5---5---|
E|--------------------------------|

E|--------------------------------|
B|--------------------------------|
G|----1-------1-------1-------1---|
D|--------2^3-------------2^3-----|
A|4-------------------------------|
E|--------------------------------|

E|--------------------------------|
B|--------------------------------|
G|----1-------1-------1-------1---|
D|--------2^3-------------2^3-----|
A|4-------------------------------|
E|--------------------------------|

E|--------------------------------|
B|--------------------------------|
G|----1-------1-------1-------1---|
D|--------2^3-------------2^3-----|
A|4---------------4---------------|
E|--------------------------------|

E|--------------------------------|
B|--------------------------------|
G|----1-------1-------1-------1---|
D|--------2^3-------------2^3-----|
A|4---------------4---------------|
E|--------------------------------|

Chorus 2

E|--------------------------------|
B|--------------------------------|
G|--------------------------------|
D|----1-------1-------1-------1---|
A|--------2^3-------------2^3-----|
E|4---------------4---------------|

E|--------------------------------|
B|--------------------------------|
G|----1-------1-------1-------1---|
D|--------2^3-------------2^3-----|
A|4-------------------------------|
E|--------------------------------|

E|--------------------------------|
B|--------------------------------|
G|--------------------------------|
D|----1-------1-------1-------1---|
A|--------2^3-------------2^3-----|
E|4---------------4---------------|

E|--------------------------------|
B|--------------------------------|
G|----1-------1---4-------3---1---|
D|--------2^3---------------------|
A|4-------------------4-----------|
E|--------------------------------|

E|--------------------------------|
B|--------------------------------|
G|--------------------------------|
D|----1-------1-------1-------1---|
A|--------2^3-------------2^3-----|
E|4---------------4---------------|

E|--------------------------------|
B|--------------------------------|
G|----1-------1-------1-------1---|
D|--------2^3-------------2^3-----|
A|4-------------------------------|
E|--------------------------------|

E|--------------------------------|
B|--------------------------------|
G|----1-------1-------1-------1---|
D|--------2^3-------------2^3-----|
A|4-------------------------------|
E|--------------------------------|

Outro

E|--------------------------------|
B|--------------------------------|
G|--------------------------------|
D|----1-------1-------1-------1---|
A|--------2^3-------------2^3-----|
E|4-------------------------------|

E|--------------------------------|
B|--------------------------------|
G|--------------------------------|
D|----1-------1-------1-------1---|
A|--------2^3-------------2^3-----|
E|4-------------------------------|

E|--------------------------------|
B|--------------------------------|
G|--------------------------------|
D|----1-------1-------1-------1---|
A|--------2^3-------------2^3-----|
E|4-------------------------------|

E|--------------------------------|
B|1-------------------------------|
G|1-------------------------------|
D|1-------------------------------|
A|3-------------------------------|
E|4-------------------------------|


Guitar dropped-tuning to D# (low to high: D# G# C# F# A# D#)
[ Tab from: http://www.guitartabs.cc/tabs/t/tomahawk/cul_de_sac_tab_ver_2.html ]
Guitar has some sort of detuning going on. You can replicate this
with a Digitech Wammy pedal.

Intro

D#|--------------------------------|
A#|--------------------------------|
F#|--------------------------------|
C#|----2-------2-------2-------2---|
G#|0-------3^4-----0-------3^4-----|
D#|--------------------------------|

D#|--------------------------------|
A#|--------------------------------|
F#|----2-------2-------2-------2---|
C#|0-------3^4-------------3^4-----|
G#|--------------------------------|
D#|--------------------------------|

D#|--------------------------------|
A#|--------------------------------|
F#|--------------------------------|
C#|----2-------2-------2-------2---|
G#|0-------3^4-----0-------3^4-----|
D#|--------------------------------|

D#|--------------------------------|
A#|--------------------------------|
F#|----2-------2---5-------4---2---|
C#|0-------3^4---------0-----------|
G#|--------------------------------|
D#|--------------------------------|

D#|--------------------------------|
A#|--------------------------------|
F#|--------------------------------|
C#|----2-------2-------2-------2---|
G#|0-------3^4-----0-------3^4-----|
D#|--------------------------------|

D#|--------------------------------|
A#|--------------------------------|
F#|----2-------2-------2-------2---|
C#|0-------3^4-------------3^4-----|
G#|--------------------------------|
D#|--------------------------------|

D#|--------------------------------|
A#|--------------------------------|
F#|----2-------2-------2-------2---|
C#|0-------3^4-------------3^4-----|
G#|--------------------------------|
D#|--------------------------------|

Verse 1

D#|--------------------------------|
A#|--------------------------------|
F#|--------------------------------|
C#|----2-------2-------2-------2---|
G#|0-------3^4-------------3^4-----|
D#|--------------------------------|

D#|--------------------------------|
A#|--------------------------------|
F#|--------------------------------|
C#|----2-------2-------2-------2---|
G#|0-------3^4-------------3^4-----|
D#|--------------------------------|

D#|--------------------------------|
A#|--------------------------------|
F#|--------------------------------|
C#|----2-------2-------2-------2---|
G#|0-------3^4-------------3^4-----|
D#|--------------------------------|

D#|--------------------------------|
A#|--------------------------------|
F#|--------------------------------|
C#|----2-------2-------2-------2---|
G#|0-------3^4-------------3^4-----|
D#|--------------------------------|

D#|--------------------------------|
A#|----0-------0-------0-------0---|
F#|--------0^1-------------0^1-----|
C#|2---------------2---------------|
G#|--------------------------------|
D#|--------------------------------|

D#|--------------------------------|
A#|----0-------0-------0-------0---|
F#|--------0^1-------------0^1-----|
C#|2---------------2---------------|
G#|--------------------------------|
D#|--------------------------------|

D#|--------------------------------|
A#|--------------------------------|
F#|--------------------------------|
C#|----2-------2-------2-------2---|
G#|0-------3^4-------------3^4-----|
D#|--------------------------------|

D#|--------------------------------|
A#|--------------------------------|
F#|--------------------------------|
C#|----2-------2-------2-------2---|
G#|0-------3^4-------------3^4-----|
D#|--------------------------------|

D#|--------------------------------|
A#|----0-------0-------0-------0---|
F#|--------0^1-------------0^1-----|
C#|2---------------2---------------|
G#|--------------------------------|
D#|--------------------------------|

D#|--------------------------------|
A#|----0-------0-------------------|
F#|--------0^1-------5-------4-----|
C#|2---------------7---7---6---6---|
G#|--------------------------------|
D#|--------------------------------|

D#|--------------------------------|
A#|--------------------------------|
F#|----2-------2-------2-------2---|
C#|0-------3^4-------------3^4-----|
G#|--------------------------------|
D#|--------------------------------|

D#|--------------------------------|
A#|--------------------------------|
F#|----2-------2-------2-------2---|
C#|0-------3^4-------------3^4-----|
G#|--------------------------------|
D#|--------------------------------|

D#|--------------------------------|
A#|--------------------------------|
F#|----2-------2-------2-------2---|
C#|0-------3^4-------------3^4-----|
G#|--------------------------------|
D#|--------------------------------|

D#|--------------------------------|
A#|--------------------------------|
F#|----2-------2-------2-------2---|
C#|0-------3^4-------------3^4-----|
G#|--------------------------------|
D#|--------------------------------|

Chorus 1

D#|--------------------------------|
A#|--------------------------------|
F#|--------------------------------|
C#|----2-------2-------2-------2---|
G#|0-------3^4-----0-------3^4-----|
D#|--------------------------------|

D#|--------------------------------|
A#|--------------------------------|
F#|----2-------2-------2-------2---|
C#|0-------3^4-------------3^4-----|
G#|--------------------------------|
D#|--------------------------------|

D#|--------------------------------|
A#|--------------------------------|
F#|--------------------------------|
C#|----2-------2-------2-------2---|
G#|0-------3^4-----0-------3^4-----|
D#|--------------------------------|

D#|--------------------------------|
A#|--------------------------------|
F#|----2-------2---5-------4---2---|
C#|0-------3^4---------0-----------|
G#|--------------------------------|
D#|--------------------------------|

D#|--------------------------------|
A#|--------------------------------|
F#|--------------------------------|
C#|----2-------2-------2-------2---|
G#|0-------3^4-----0-------3^4-----|
D#|--------------------------------|

D#|--------------------------------|
A#|--------------------------------|
F#|----2-------2-------2-------2---|
C#|0-------3^4-------------3^4-----|
G#|--------------------------------|
D#|--------------------------------|

D#|--------------------------------|
A#|--------------------------------|
F#|----2-------2-------2-------2---|
C#|0-------3^4-------------3^4-----|
G#|--------------------------------|
D#|--------------------------------|

Verse 2

D#|--------------------------------|
A#|--------------------------------|
F#|--------------------------------|
C#|----2-------2-------2-------2---|
G#|0-------3^4-------------3^4-----|
D#|--------------------------------|

D#|--------------------------------|
A#|--------------------------------|
F#|--------------------------------|
C#|----2-------2-------2-------2---|
G#|0-------3^4-------------3^4-----|
D#|--------------------------------|

D#|--------------------------------|
A#|----0-------0-------0-------0---|
F#|--------0^1-------------0^1-----|
C#|2---------------2---------------|
G#|--------------------------------|
D#|--------------------------------|

D#|--------------------------------|
A#|----0-------0-------0-------0---|
F#|--------0^1-------------0^1-----|
C#|2---------------2---------------|
G#|--------------------------------|
D#|--------------------------------|

D#|--------------------------------|
A#|--------------------------------|
F#|--------------------------------|
C#|----2-------2-------2-------2---|
G#|0-------3^4-------------3^4-----|
D#|--------------------------------|

D#|--------------------------------|
A#|--------------------------------|
F#|--------------------------------|
C#|----2-------2-------2-------2---|
G#|0-------3^4-------------3^4-----|
D#|--------------------------------|

D#|--------------------------------|
A#|----0-------0-------0-------0---|
F#|--------0^1-------------0^1-----|
C#|2---------------2---------------|
G#|--------------------------------|
D#|--------------------------------|

D#|--------------------------------|
A#|----0-------0-------------------|
F#|--------0^1-------5-------4-----|
C#|2---------------7---7---6---6---|
G#|--------------------------------|
D#|--------------------------------|

D#|--------------------------------|
A#|--------------------------------|
F#|----2-------2-------2-------2---|
C#|0-------3^4-------------3^4-----|
G#|--------------------------------|
D#|--------------------------------|

D#|--------------------------------|
A#|--------------------------------|
F#|----2-------2-------2-------2---|
C#|0-------3^4-------------3^4-----|
G#|--------------------------------|
D#|--------------------------------|

D#|--------------------------------|
A#|--------------------------------|
F#|----2-------2-------2-------2---|
C#|0-------3^4-------------3^4-----|
G#|--------------------------------|
D#|--------------------------------|

D#|--------------------------------|
A#|--------------------------------|
F#|----2-------2-------2-------2---|
C#|0-------3^4-------------3^4-----|
G#|--------------------------------|
D#|--------------------------------|

Chorus 2

D#|--------------------------------|
A#|--------------------------------|
F#|--------------------------------|
C#|----2-------2-------2-------2---|
G#|0-------3^4-----0-------3^4-----|
D#|--------------------------------|

D#|--------------------------------|
A#|--------------------------------|
F#|----2-------2-------2-------2---|
C#|0-------3^4-------------3^4-----|
G#|--------------------------------|
D#|--------------------------------|

D#|--------------------------------|
A#|--------------------------------|
F#|--------------------------------|
C#|----2-------2-------2-------2---|
G#|0-------3^4-----0-------3^4-----|
D#|--------------------------------|

D#|--------------------------------|
A#|--------------------------------|
F#|----2-------2---5-------4---2---|
C#|0-------3^4---------0-----------|
G#|--------------------------------|
D#|--------------------------------|

D#|--------------------------------|
A#|--------------------------------|
F#|--------------------------------|
C#|----2-------2-------2-------2---|
G#|0-------3^4-----0-------3^4-----|
D#|--------------------------------|

D#|--------------------------------|
A#|--------------------------------|
F#|----2-------2-------2-------2---|
C#|0-------3^4-------------3^4-----|
G#|--------------------------------|
D#|--------------------------------|

D#|--------------------------------|
A#|--------------------------------|
F#|----2-------2-------2-------2---|
C#|0-------3^4-------------3^4-----|
G#|--------------------------------|
D#|--------------------------------|

Outro

D#|--------------------------------|
A#|--------------------------------|
F#|--------------------------------|
C#|----2-------2-------2-------2---|
G#|0-------3^4-------------3^4-----|
D#|--------------------------------|

D#|--------------------------------|
A#|--------------------------------|
F#|--------------------------------|
C#|----2-------2-------2-------2---|
G#|0-------3^4-------------3^4-----|
D#|--------------------------------|

D#|--------------------------------|
A#|--------------------------------|
F#|--------------------------------|
C#|----2-------2-------2-------2---|
G#|0-------3^4-------------3^4-----|
D#|--------------------------------|

D#|--------------------------------|
A#|0-------------------------------|
F#|0-------------------------------|
C#|0-------------------------------|
G#|2-------------------------------|
D#|3-------------------------------|


--------------------------------------------------------------------------------
Comments