Tom Waits - Make It Rain Chords & Tabs

 

Make It Rain Chords & Tabs

Tom Waits Chords & Tabs

Version: 1 Type: Tab 0 ratings
1 star 2 stars 3 stars 4 stars 5 stars
comments

Make It Rain Tab

If you're going to copy my tab attach my name to it at least, capish?
tabbed by pat wade
I play the solo with a slide but its optional and can be played without.

p = pull off
h = hammer on
s = slide
^ = bend
~ = vibrato

Verse
e|--5----5----5----5----5----5----5----5-----------------------------------|
B|--6----6----6----6----5----5----5----5-----------------------------------|
G|--7----7----7----7----6----6----6----6-----------------------------------|
D|--7----7----7----7----7----7----7----7-----------------------------------|
A|--5----5----5----5----7----7----7----7-----------------------------------|
E|----------------------5----5----5----5-----------------------------------|

e|----------------------5---5---5--5-5-----------------------------------|
B|----------------------6---6---6--6-6-----------------------------------|
G|--6-3-----------------7---7---7--7-7-----------------------------------|
D|-------4-2-0----------7---7---7--7-7-----------------------------------|
A|--------------4-2-0---5---5---5--5-5-----------------------------------|
E|-----------------------------------------------------------------------|

e|--5----5----5----5----5----5----5----5-----------------------------------|
B|--6----6----6----6----5----5----5----5-----------------------------------|
G|--7----7----7----7----6----6----6----6-----------------------------------|
D|--7----7----7----7----7----7----7----7-----------------------------------|
A|--5----5----5----5----7----7----7----7-----------------------------------|
E|----------------------5----5----5----5-----------------------------------|

repeat pattern
[ Tab from: http://www.guitartabs.cc/tabs/t/tom_waits/make_it_rain_tab.html ]
solo (slide optional) :
e|-----------------------------4-7--10-9--------7-7-7-7-9-7^---------|
B|-10^-4-7-9-4-7-7-9-7-9-7-9-4-4-7-------11-----7-7-7-7-9-7----------|
G|-10--4-7-9-4-7-7-9-7-9-7-9-4--s----------11-9-7-7-7-7-9-7----------|
D|----------------h-----p---s--------------------------s-------------|
A|-------------------------------------------------------------------|
E|-------------------------------------------------------------------|

solo cont'd

e|------------------------------------------------------------------------|
B|--------7~--------------7-4~---4-9-7------------------------------------|
G|--------7--7-9----------7-4----4-9-7------------------------------------|
D|--9-7-9-----p--7-9-------s------s-s-------------------------------------|
A|---p------------p--7-9--------------------------------------------------|
E|--------------------p---------------------------------------------------|

verse:
e|--5----5----5----5----5----5----5----5-----------------------------------|
B|--6----6----6----6----5----5----5----5-----------------------------------|
G|--7----7----7----7----6----6----6----6-----------------------------------|
D|--7----7----7----7----7----7----7----7-----------------------------------|
A|--5----5----5----5----7----7----7----7-----------------------------------|
E|----------------------5----5----5----5-----------------------------------|

e|----------------------5---5---5--5-5---------------------------------|
B|----------------------6---6---6--6-6---------------------------------|
G|--6-3-----------------7---7---7--7-7---------------------------------|
D|-------4-2-0----------7---7---7--7-7---------------------------------|
A|--------------4-2-0---5---5---5--5-5---------------------------------|
E|---------------------------------------------------------------------|

repeat pattern

e|--1-----1----12^-10-----12^-10----12^-10----12-12^---1---1----------|
B|--3-----3----p---12-----p---12----p---12-------------3---3----------|
G|--2-----2--------------------------------------------2---2----------|
D|--------------------------------------------------------------------|
A|--------------------------------------------------------------------|
E|--0-----0--------------------------------------------0----0---------|
Comments