Tom Waits - Jockey Full Of Bourbon Chords & Tabs

 

Jockey Full Of Bourbon Chords & Tabs

Tom Waits Chords & Tabs

Version: 1 Type: Tab 0 ratings
1 star 2 stars 3 stars 4 stars 5 stars
comments

Jockey Full Of Bourbon Tab

   
-----------------------------------------------------------------------------
			     Jockey Full of Bourbon - Tom Waits
-----------------------------------------------------------------------------
Tabbed by: Jake Chambers
Email: unpatriot19@yahoo.com

Tuning: STANDARD

INTRO

Listen to recording for timing.

|----------------------------------------------------------------------------|
|----------------------------------------------------------------------------|
|------------------------------------------------5--4--3--2----4--4--4--4----|
|-----2-------------4--2--1--2-----5--4--3--2------------------------------2-|
|--------2-------------------------------------------------------------------|
|--0--------3--2-------------------------------------------------------------|


VERSE CHORDS:

      Em       B7
|--------------2---------|
|--------------0---------|
|-----0--------2---------|
|-----2--------1---------|
|-----2--------2---------|
|-----0------------------|

Em
Edna Millon in a drop dead suit
                B7
Dutch pink in a downtown train
[ Tab from: http://www.guitartabs.cc/tabs/t/tom_waits/jockey_full_of_bourbon_tab.html ]
Two dollar pistol, but the gun won't shoot
                         Em
I'm in the corner in the pouring rain

16 men on a deadman's chest
                             B7
And I've been drinking from a broken cup

Two pair of pants and a mohair vest
                      Em
I'm full of burbon; I can't stand up

CHORUS CHORDS:

     Am      Em       B7

|----------------------2---------|
|----1-----------------0---------|
|----2--------0--------2---------|
|----2--------2--------1---------|
|----0--------2--------2---------|
|-------------0------------------|


Am                   Em
Hey little bird, fly away home
     B7                Em
Your house is on fire; your children are alone
Am                   Em
Hey little bird, fly away home
     B7                Em
Your house is on fire; your children are alone


The SOLO and Ribot's licks over the verses are all playing off of the INTRO RIFF. With 
it is all about tone. Move the riff up the fretboard to try to get some of the licks.
Comments