Tom Waits - Jockey Full Of Borubon Chords & Tabs

 

Jockey Full Of Borubon Chords & Tabs

Tom Waits Chords & Tabs

Version: 1 Type: Bass Tab 0 ratings
1 star 2 stars 3 stars 4 stars 5 stars
comments

Jockey Full Of Borubon Bass Tab

Tom Waits - Jockey Full of Borubon
Tabbed By: Derek VonGoetzinger
EMail: soul_burn_77@excite.com
The albun - Rain Dogs and Beautiful Maladies

Standard tuning (E)

It looks really crazy, but it is very easy
and fun to play

Intro:

G-----------------------
D---9--9--9--9--9--9--9-
A--7--9--9--7--7--9--9--
E----7--7--7--7--7--7---
[ Tab from: http://www.guitartabs.cc/tabs/t/tom_waits/jockey_full_of_borubon_btab.html ]
Verse:
G---------------------------------------
D----9--9--9--9--9--9--9--9--9--9--9--9-
A---7--7--7--7--9--9--9--9--7--7--7--7--
E--7--7--7--7--7--7--7--7--7--7--7--7---

G-------------------
D----9--9--9--9--9--
A---9--9--9--9--7---
E--7--7--7--7--7--7-

Chorus:

G----------------------------------------------
D----7------9----------9---7------9----------9-
A---7--7-10----9--7-10----7--7-10----9--1-10---
E--5----------7-0--------5----------7-0--------

Derek VonGoetzinger
soul_burn_77@excite.com
Comments