Tom Vek - If You Want Chords & Tabs

 

If You Want Chords & Tabs

Tom Vek Chords & Tabs

Version: 1 Type: Tab

If You Want Tab

tom vek - if you want

this is played all the way through



e|-------------------|
B|-------------------|
G|-----------6-------|      x 6
D|---6---7-----------|
A|-------------------|
E|-------------------|

[ Tab from: http://www.guitartabs.cc/tabs/t/tom_vek/if_you_want_tab.html ]
e|--------------------------|
B|--------------------------|
G|----------6---9--8--------|      
D|--6---7-------------9--7--|    
A|--------------------------|
E|--------------------------|


in the chorus the top part is played only.

pretty simple tab but sounds good when played together with bass.