Tom Petty - Mary Janes Last Dance Chords & Tabs

 

Mary Janes Last Dance Chords & Tabs

Tom Petty Chords & Tabs

Version: 2 Type: Bass Tab 0 ratings
1 star 2 stars 3 stars 4 stars 5 stars
comments

Mary Janes Last Dance Bass Tab

Tom Petty     Mary Jane's Last Dance


INTRO

G:|-14-------|----------|
D:|----------|----------|
A:|----------|----------|
E:|----------|----------|


VERSE

G:|----------|----------|
D:|----------|----------|
A:|----------|-5--------|
E:|-5---3-3--|-----5-5--|

CHORUS
[ Tab from: http://www.guitartabs.cc/tabs/t/tom_petty/mary_janes_last_dance_btab_ver_2.html ]
G:|----------|----------|----------|--------------|
D:|----------|----------|----------|--------------|
A:|-5---5-5--|-5---5-5--|----------|--------------|
E:|----------|----------|-5---5-5--|-5---5-5 /12--|

G:|----------|----------|----------|--------------|--------|
D:|----------|----------|----------|--------------|--------|
A:|-5---5-5--|-5---5-5--|----------|-----------12-|-10-----|
E:|----------|----------|-5---5-5--|-5---5-5/12---|--------|
Comments