Tom Petty - Learning To Fly Chords & Tabs

 

Learning To Fly Chords & Tabs

Tom Petty Chords & Tabs

Version: 1 Type: Bass Tab 0 ratings
1 star 2 stars 3 stars 4 stars 5 stars
comments

Learning To Fly Bass Tab

TOM PETTY & THE HEARTBREAKERS - "Learning To Fly" - Bass Tab

Common Time(4/4)
Standard Tuning(EADG)

[ Tab from: http://www.guitartabs.cc/tabs/t/tom_petty/learning_to_fly_btab.html ]
MAIN RIFF:
|------------------|-----------------|-----------------|
|*-3-3-3-----------|-----------------|-----------------|
|*-------3---3-3-3-|-----------------|-------3---3-3-3-|
|------------------|-5-5-5-3---3-3-3-|-1-1-1-----------|
   1 & 2 & 3 & 4 &   1 & 2 & 3 & 4 &   1 & 2 & 3 & 4 &

|------------------|
|-----------------*|
|-----------------*|
|-5-5-5-3---3-3-3--|
  1 & 2 & 3 & 4 &


By: Johari Taylor
E-mail: viking@powerup.com.au, or s369700@student.uq.edu
More Bass Tabs: http://www.powerup.com.au/~viking/basstab.htm
Comments