Tom Petty - Breakdown Chords & Tabs

 

Breakdown Chords & Tabs

Tom Petty Chords & Tabs

Version: 1 Type: Tab

Breakdown Tab

   
Tom Petty
Breakdown

There are some tab's for this song but they are wrong

Intro..
e---------------------------------------------------------|
B---------------------------------10p8---8-10v------------|
G--------------------------------------9------------------|
D---------------------------------------------------------|
A---------------------------------------------------------|
E---------------------------------------------------------|

2x
e---------------------------------------------------------|
B--/10-8-10-----------------------/10-8vh10---------------|
G-----------9v-9-7-------------------------/9-7vh9p7------|
D------------------7v-5-7-5---------------------------7v--|
A---------------------------7v----------------------------|
E---------------------------------------------------------|


Verse
      Am\G  /Am             			      Fmaj7
e------------------------------------------------------0----|
B------------------------------------------------------1----|
G------------------------------------------------------2----|
D------7\5--/7-----------------------------------------3----|
A------7\5--/7---over lyrics---------------------------3----|
E------5\3--/5-----------------------------------------0----|
  1..........................I get the feelin you won't.....
  2.........................We said all there is to say....
[ Tab from: http://www.guitartabs.cc/tabs/t/tom_petty/breakdown_tab.html ]
Chorus
     Am             G                F              G
e---------------------------------------------------------|
B---------------------------------------------------------|
G---------------------------------------------------------|
D----7--------------5----------------3--------------5-----|
A----7--------------5----------------3--------------5-----|
E----5--------------3----------------1--------------3-----|
*Over again until it ends on Fmaj7

Break

e-----------------------------------------------------------|
B--/10-8-10-------------------------------------------------|
G-----------9v-9-7-9-------------------5-7b-5-7-------------|
D--------------------7v-5-7--------5h7----------7v----------|
A---------------------------7v------------------------------|
E-----------------------------------------------------------|

e---------------------------------3/555555555555555577777777999912--|
B--/10-8-10-----------------------3/555555555555555577777777999912--|
G-----------9v-9-7-9------------------------------------------------|
D--------------------7v-5-7-----------------------------------------|
A---------------------------7v--------------------------------------|
E-------------------------------------------------------------------|


Outro to fade

e---------------------------------------------------------|
B--/10-8-10-----------------------------------------------|
G-----------9v-9-7-9--------------------------------------|
D--------------------7v-5-7-------------------------------|
A---------------------------7v/---------------------------|
E---------------------------------------------------------|

Yost with the Most