Tom Petty - Break Down Chords & Tabs

 

Break Down Chords & Tabs

Tom Petty Chords & Tabs

Version: 2 Type: Tab 0 ratings
1 star 2 stars 3 stars 4 stars 5 stars
comments

Break Down Tab

   
-------------------------------------------------------------------------------
			     Break Down - Tom petty and The HeartBreakers
-------------------------------------------------------------------------------
Tabbed by:TJ Andrews
Email:Neversummer1237@aol.com

Tuning:Standard
[ Tab from: http://www.guitartabs.cc/tabs/t/tom_petty/break_down_tab_ver_2.html ]
e|-----------------------------------------------------5--5------------------|
B|-10-8-10---------------------------------10-8-10-----5--5------------------|
G|----------9~~--9-7-9----------------------9-9--9--------7--7--5------------|
D|----------------------7~~--7-5-7--------------------------------7~~--------|
A|----------------------------------7~~--------------------------------------|
E|---------------------------------------------------------------------------|

The rythme part that I figured out was just Am G and youll figure it out, its
different when they go into the chorus I think

| /  slide up
| \  slide down
| h  hammer-on
| p  pull-off
| ~  vibrato
| +  harmonic
| x  Mute note
===============================================================================
Comments