Tom Petty - Break Down Chords & Tabs

 

Break Down Chords & Tabs

Tom Petty Chords & Tabs

Version: 1 Type: Tab 0 ratings
1 star 2 stars 3 stars 4 stars 5 stars
comments

Break Down Tab

   
----------------------------------------------------------------------------
			     Breakdown - Tom Petty
----------------------------------------------------------------------------
Tabbed by:    Ryan Ruikkie
Email:        ruikkier@yahoo.com

Tuning: Standard

e|-------------------------------------------------------------------------|
B|----10--8--10---------------------------------10/8-------7/5-------------|
G|---------------9--9--7--9----------------------9/7-------7/5-------------|
D|---------------------------7--7--5--7------------------------------------|
A|---------------------------------------7---------------------------------|
E|-------------------------------------------------------------------------|
[ Tab from: http://www.guitartabs.cc/tabs/t/tom_petty/break_down_tab.html ]
		Am    G            Am    G
		Its alright if you love me, 
		Am    G            Am    G
		Its alright if you don't
		Am        G            Am      G         
	  	I'm not afraid of you runnin away honey, 
		Am          G         Fmaj7
		I got this feeling you won't
		    Am             G       Am    G   
		Say there aint no use in pretending, 
		Am   G             Am   G
		Your eyes give you away

		Am         G             Am          G     
		Something inside you is feeling like I do,
		Am           G      Fmaj7
		We said all there is to say

		Fmaj7    G/f    Am/f   G/f

		Am    G   F            G             
		Breakdown go ahead and give it to me 
		Am    G    F                   G
		Breakdown take me through the night
		Am    G   F           G           
		Breakdown go ahead give it to me, 
		Am    G        Fmaj7
		Breakdown its alright, 


		Fmaj7  G/f  Am/f  G/f  Fmaj7  G/f  Am/F  G/F    Am   G Am  G
	                       its alright          its alright
Comments