Tom Morello - Face Off Chords & Tabs

 

Face Off Chords & Tabs

Tom Morello Chords & Tabs

Version: 1 Type: Tab 0 ratings
1 star 2 stars 3 stars 4 stars 5 stars
comments

Face Off Tab

This is the song from the movie Dodgeball when there walkin on the court for the
ship.Its short bout fun 2 play.on the second slide slide down then up.


e--------------------------------------------------------------------------|
b---------------------------------------------------2//////////////--------|
g-----------------------------------------------------------------2////////|
d--------------------------------------------------------------------------|
a----3-3------------------------3------3-3---------------------------------|
d--------5--3--0-----5--3--0--3---5--0----5--3--0--------------------------|
[ Tab from: http://www.guitartabs.cc/tabs/t/tom_morello/face_off_tab.html ]
e--------------------------------------------------------------------------|
b--------------------------------------------------------------------------|
g--------------------------------------------------------------------------|
d-------------------------------------------------5--3---------------------|
a----3-3------------------------3------3-3------------5--3-----------------|
d--------5--3--0-----5--3--0--3---5--0----5--3--0--------5--3-0------------|

e--------------------------------------------------------------------------|
b--------------------------------------------------------------------------|
g--------------------------------------------------------------------------|
d--------------------------------------------------------------------------|
a----3-3------------------------3------3-3--------3-5-x-x------------------|
d--------5--3--0-----5--3--0--3---5--0----5--3--0-3-5-x-x------------------|

e--------------------------------------------------------------------------|
b--------------------------------------------------------------------------|
g--------------------------------------------------------------------------|
d--------------------------------------------------------------------------|
a----3-3------------------------3----xxxxxxxxxxxxxxxxxxxxxxxxxxxxxxxxxxxxxx|
d--------5--3--0-----5--3--0--3---5-0xxxxxxxxxxxxxxxxxxxxxxxxxxxxxxxxxxxxxx|


thats it its really a fun song 2 play if uve seen the movie if u have any
questions email me     thumbtack_5@hotmail.com
Comments