Tolidos - Desiciones Adolecentes Chords & Tabs

 

Desiciones Adolecentes Chords & Tabs

Tolidos Chords & Tabs

Version: 1 Type: Tab 0 ratings
1 star 2 stars 3 stars 4 stars 5 stars
comments

Desiciones Adolecentes Tab

Tuning: standard

e|---------------------------------------------------------------------------|
B|---------------------------------------------------------------------------|
G|-----6-------6-------6-------6---------------------------------------------|
D|---7----7--7----7--7----7--7-----------------------------------------------|(x2)
A|-00-0----77-7----55-5----55-5----------------------------------------------|
E|---------------------------------------------------------------------------|
guitarra 2:
e|---------------------------------------------------------------------------|
B|---10---9------------------------------------------------------------------|
G|----x---x--777-666-777-99--------------------------------------------------|(x2)
D|----7---6--xxx-xxx-xxx-xx--------------------------------------------------|
A|-----------555-444-555-77--------------------------------------------------|
E|---------------------------------------------------------------------------|
riff:
e|---------------------------------------------------------------------------|
B|---------------------------------------------------------------------------|
G|----9----9-7----9----9-6----9----9-7-6-4-6p4-------------------------------|
D|-6-7--6-7----6-7--6-7----6-7--6-7-----------7------------------------------|(x2)
A|---------------------------------------------------------------------------|
E|---------------------------------------------------------------------------|
riff: guitarra 2
e|---------------------------------------------------------------------------|
B|---------------------------------------------------------------------------|
G|-14-14-14-14-14-14-14-14-14-14-14-14/--------------------------------------|
D|-x--x--x--x--x--x--x--x--x--x--x--x----------------------------------------|
A|-12-12-12-12-12-12-12-12-12-12-12-12/--------------------------------------|
E|---------------------------------------------------------------------------|
verso:
e|---------------------------------------------------------------------------|
B|---------------------------------------------------------------------------|
G|4-4-4-4-44-4h6-44----------------------------------------------------------|
D|7-7-7-7-77-7---77----------------------------------------------------------|
A|0-0-0-0-00-0---00----------------------------------------------------------|
E|---------------------------------------------------------------------------|
[ Tab from: http://www.guitartabs.cc/tabs/t/tolidos/desiciones_adolecentes_tab.html ]
e|---------------------------------------------------------------------------|
B|5-5-5-5--------------------------------------------------------------------|
G|6-6-6-6-7p66-4-4-4-4-4-4h66-7-7-7-7-7-7p66-7-7-7-7-6-6-7-7-----------------|(x2)
D|7-7-7-7------7-7-7-7-7------7-7-7-7-7------7-7-7-7-7-7-7-7-----------------|
A|-------------0-0-0-0-0------0-0-0-0-0------5-5-5-5-5-5-5-5-----------------|
E|---------------------------------------------------------------------------|
no se ques es lo que intentas...
pre coro:
e|--00000-00000-00000-00000--0000000----0--0--0------0000000000000000000000000000-------|
B|-/55555-33333-22222-33333-/5555555-/10-10-10-10---/555555/777777/99999/10101010-------|
G|--------------------------------------------------------------------------------------|
D|--------------------------------------------------------------------------------------|
A|--------------------------------------------------------------------------------------|
E|--------------------------------------------------------------------------------------|
te miro a los ojos besame, estoy en tus manos destrozame, las cosas no hacen sentido
guitarra 1
e|---------------------------------------------------------------------------|
B|-77777-9-10-10-10-10-------------------------------------------------------|
G|-xxxxx-x-x--x--x--x--------------------------------------------------------|
D|-44444-6-7--7--7--7--------------------------------------------------------|
A|---------------------------------------------------------------------------|
E|---------------------------------------------------------------------------|
y tu no estas junto a mi
guitarra 2:
e|---------------------------------------------------------------------------|
B|---------------------------------------------------------------------------|
G|4444-6-7777-999------------------------------------------------------------|
D|xxxx-x-xxxx-xxx------------------------------------------------------------|
A|2222-4-5555-777------------------------------------------------------------|
E|---------------------------------------------------------------------------|
break:
e|---------------------------------------------------------------------------|
B|10-10-10-10-9/10-9-9-9-9/10-9-10/12----------------------------------------|
G|x--x--x--x--x-x--x-x-x-x-x--x-x--x--9-9-9-9-9-9/7-6-6-6-6/7-6-4/6----------|
D|7--7--7--7--6-7--6-6-6-6-7--6-7--9--x-x-x-x-x-x-x-x-x-x-x-x-x-x-x----------|
A|------------------------------------7-7-7-7-7-7/5-4-4-4-4-5-4-2/4----------|
E|---------------------------------------------------------------------------|
verso: guitarra 1 
guitarra 2:
e|---------------------------------------------------------------------------|
B|---9----9----9----9----9----9----9-----------------------------------------|
G|6-7--6-7--6-7--6-7--6-7--6-7--6-7------------------------------------------|
D|---------------------------------------------------------------------------|
A|---------------------------------------------------------------------------|
E|---------------------------------------------------------------------------|
pre coro(x1)
coro:
e|---------------------------------------------------------------------------|
B|---------------------------------------------------------------------------|
G|---------------------------------------------------------------------------|
D|-------------9-9-9-9-9-9-7-7-7-7-7-7---------------------------------------|(x2)
A|-7-7-7-7-7-7-7-7-7-7-7-7-5-5-5-5-5-5-4-4-4-4-6-6-6-6-----------------------|
E|-5-5-5-5-5-5-------------------------2-2-2-2-4-4-4-4-----------------------|
solo:
e|-------------------------9----10--9-12b13-10--9-----------------------------|
B|10-7-5-7-5--------10-10-10-10-10-10-12b13-10-10-10--------------------------|
G|-9-7-6-7-6-6-7-6--9---9-----9---------------------9-------------------------|
D|----------------7-----------------------------------------------------------|
A|-----------------7----------------------------------------------------------|
E|----------------------------------------------------------------------------|

e|000000000000000-000-0------------------------------------------------------|
B|/555/777/999/10-0/7-5------------------------------------------------------|
G|------------------------6h7p6----------------------------------------------|
D|-----------------------------7-7-7h9-7-------------------------------------|
A|------------------------------7------0-------------------------------------|
E|---------------------------------------------------------------------------|
bridge:
e|---------------------------------------------------------------------------|
B|---10---10----10---10----10---10---10---10---------------------------------|
G|--9--9-9--9--9--9-9--9--9--9-9--9-9--9-9--9--------------------------------|
D|-7----7-----6----6---------------------------------------------------------|(x2)
A|-----------------------9----9----9----7------------------------------------|
E|---------------------------------------------------------------------------|

e|---------------------------------------------------------------------------|
B|---------------------------------------------------------------------------|
G|7*-------------------------------------------------------------------------|
D|0*-------------------------------------------------------------------------|
A|5*--44-4-4-4-66-6-6-6------------------------------------------------------|
E|----22-2-2-2-44-4-4-4------------------------------------------------------|
      ..   .   ..   .
si con tu mirada llegaste lejos
coro(x4)

acaba en:
e|-----------------------------------------------------|
B|-----------------------------------------------------|
G|6h7p6------------------------------------------------|
D|-----7-7-7h9-7----7*---------------------------------|
A|------7------0----7*---------------------------------|
E|------------------5*---------------------------------|
Comments