Tokio Hotel - Unendlichkeit Chords & Tabs

 

Unendlichkeit Chords & Tabs

Tokio Hotel Chords & Tabs

Version: 1 Type: Tab

Unendlichkeit Tab

   
-------------------------------------------------------------------------------
		UNENDLICHKEIT - TOKIO HOTEL
-------------------------------------------------------------------------------
Tabbed by:Shredster

Tuning:E

e|---------------------------------------------------------------------------|
B|---------------------------------------------------------------------------|
G|---------------------------------------------------------------------------|
D|-----2--------------------5--------5-----5---------------------------------|
A|-0------0-------3------3-----3--3-----3------------------------------------|
E|-------------1-------1-----------------------------------------------------|
[ Tab from: http://www.guitartabs.cc/tabs/t/tokio_hotel/unendlichkeit_tab.html ]
This the little melody that plays over the top of the song,not sure if its a guitar or 
but i sounds cool
e|-----------------------------------------------------------------------------|
B|----5~--5 (bend up then release)---------------------------------------------|
G|-----------------------------------5------------------/5---------------------|
D|----------------------------------------5~-----------------3----2~-----------|
A|-----------------------------------------------------------------------------|
E|-----------------------------------------------------------------------------|
    Last Chord
e|------------------------------------------------------------------------------|
B|------------------------------------------------------------------------------|
G|------------------------------------------------------------------------------|
D|---2--------------------------------------------------------------------------|
A|---0--------------------------------------------------------------------------|
E|------------------------------------------------------------------------------|


| /  slide up
| \  slide down
| h  hammer-on
| p  pull-off
| ~  vibrato
| +  harmonic
| x  Mute note
===============================================================================