Tokio Hotel - Durch Den Monsun Chords & Tabs

 

Durch Den Monsun Chords & Tabs

Tokio Hotel Chords & Tabs

Version: 4 Type: Tab

Durch Den Monsun Tab

   
Durch den Monsun - Tokio Hotel
================
First of all I want to say three things:
I didn't found an accurate tab of that song, I needed it for a presentation at school,
so I tabbed it. The next thing is: I didn't like Tokio Hotel, I only want to give you
the opportunity to play this song, if you want to play it. And I only wrote down a
version that you can play it with one guitar. So the leads and maybe
(in my eyes) unimportant parts are missing. If you want to hear finer music, go to
www.novembersfall.com :-)





A
  2x:
1:-----------------------|
2:-----------------------|
3:-1112-2-1--------------|
4:-2222-2-2---2223-3-2---|
5:-2222-2-2---3333-3-3---|
6:------------3333-3-3---|

B
  3x:                    1x:                    3x:                    1x:
1:----------------------|----------------------|----------------------|----------------------|
2:----------------------|-------------0-00-00--|----------------------|----------------------|
3:-1112-2-1-------------|-------------0-00-00--|-1112-2-1-------------|----------------------|
4:-2222-2-2---2223-3-2--|-7777-7-7----0-00-00--|-2222-2-2---2223-3-2--|----------------------|
5:-2222-2-2---3333-3-3--|-7777-7-7----2-22-22--|-2222-2-2---3333-3-3--|-5555-5-5----4444-4-4-|
6:------------3333-3-3--|-5555-5-5----3-33-33--|------------3333-3-3--|-5555-5-5----5555-5-5-|


C(Refrain1)

1:-3-----3-----3---|-2-----2-----2---|-3-----3-----3---|-2-----2-----2---|
2:---3-----3-----3-|---3-----3-----3-|---5-----5-----5-|---3-----3-----3-|
3:-----5-----5-----|-----2-----2-----|-----4-----4-----|-----4-----4-----|
4:-----------------|-----------------|-----------------|-----------------|
5:-----------------|-----------------|-----------------|-----------------|
6:-----------------|-----------------|-----------------|-----------------|

1:-3-----3-----3---|-2-----2-----2---|-2-----2-----2---|-3-----3-----3---|
2:---3-----3-----3-|---3-----3-----3-|---3-----3-----3-|---5-----5-----5-|
3:-----5-----5-----|-----2-----2-----|-----4-----4-----|-----4-----4-----|
4:-----------------|-----------------|-----------------|-----------------|
5:-----------------|-----------------|-----------------|-----------------|
6:-----------------|-----------------|-----------------|-----------------|

1:-3-----3-----3---|-2...---------------------------------------
2:---3-----3-----3-|-3---------------------------------------
3:-----5-----5-----|-2--------------------------------------
4:-----------------|-------------------------------------
5:-----------------|-------------------------------------
6:-----------------|-------------------------------------

(A and B are repeated) 

C'(Refrain2)
[ Tab from: http://www.guitartabs.cc/tabs/t/tokio_hotel/durch_den_monsun_tab_ver_4.html ]
1:-3-----3-----3---|-2-----2-----2---|-3-----3-----3---|-2-----2-----2---|
2:---3-----3-----3-|---3-----3-----3-|---5-----5-----5-|---3-----3-----3-|
3:-----5-----5-----|-----2-----2-----|-----4-----4-----|-----4-----4-----|
4:-----------------|-----------------|-----------------|-----------------|
5:-----------------|-----------------|-----------------|-----------------|
6:-----------------|-----------------|-----------------|-----------------|

1:-3-----3-----3---|-2-----2-----2---|-2-----2-----2---|-3-----3-----3---|
2:---3-----3-----3-|---3-----3-----3-|---3-----3-----3-|---5-----5-----5-|
3:-----5-----5-----|-----2-----2-----|-----4-----4-----|-----4-----4-----|
4:-----------------|-----------------|-----------------|-----------------|
5:-----------------|-----------------|-----------------|-----------------|
6:-----------------|-----------------|-----------------|-----------------|

1:-3-----3-----3---|-2-----2-----2---|-3-----3-----3---|-2-----2-----2---|
2:---3-----3-----3-|---3-----3-----3-|---5-----5-----5-|---3-----3-----3-|
3:-----5-----5-----|-----2-----2-----|-----4-----4-----|-----4-----4-----|
4:-----------------|-----------------|-----------------|-----------------|
5:-----------------|-----------------|-----------------|-----------------|
6:-----------------|-----------------|-----------------|-----------------|

1:-3-----3-----3---|-2-2-2-2-2-2-2-2-|
2:---3-----3-----3-|-3-3-3-3-3-3-3-3-|
3:-----5-----5-----|-2-2-2-2-2-2-2-2-|
4:-----------------|-----------------|
5:-----------------|-----------------|
6:-----------------|-----------------|



D(distortion)
  5x:                   1x:                   1x:
1:--------------------|---------------------|------|
2:--------------------|---------------------|-0----|
3:-22211111-----------|-22211111------------|-0----|
4:-22222222-33322222--|-22222222--33333333--|-2----|
5:-22222222-33333333--|-22222222--33333333--|-3----|
6:----------33333333--|-----------33333333--|-3----|

E
  3x:             1x:
1:--------------|------|
2:--------------|------|
3:-1--12-21-----|-1----|
4:-2--22-22--2--|-2----|
5:-2--22-22--3--|-2----|
6:-----------3--|------|


C''(Refrain3-distortion)

1:-------------------------|-------------------------|-------------------------|-------------|
2:-------------------------|-------------------------|-------------------------|-------------|
3:-5-----7-----9-----------|-5-----7-----------9-----|-5-----7-----9-----------|-5-----7-----|
4:-5(8x)-7(8x)-9(8x)-9(8x)-|-5(8x)-7(8x)-9(8x)-9(8x)-|-5(8x)-7(8x)-9(8x)-9(8x)-|-5(8x)-7(8x)-|
5:-3-----5-----7-----9-----|-3-----5-----9-----7-----|-3-----5-----7-----9-----|-3-----5-----|
6:-3-----5-----7-----7-----|-3-----5-----7-----7-----|-3-----5-----7-----7-----|-3-----5-----|

D'(distortion)
  3x:                   1x:
1:--------------------|--------------------|
2:--------------------|-----------------0--|
3:-11122211-----------|-11122211--------0--|
4:-22222222-22233322--|-22222222--22x3xx2--|
5:-22222222-33333333--|-22222222--33x3xx3--|
6:----------33333333--|-----------33x3xx3--|