Tohpati - Yang Dinanti Chords & Tabs

 

Yang Dinanti Chords & Tabs

Tohpati Chords & Tabs

Version: 1 Type: Tab 0 ratings
1 star 2 stars 3 stars 4 stars 5 stars
comments

Yang Dinanti Tab

http://www.indonesianmusic.com/albums/4/tohpati.htm

Yang Dinanti 
By Tohpati
Album Serampang Samba

Tabbed By Dadan
Standard Tuning
Acoustic Guitar

Verse I
e|--------5--7/9--7-5------------4/5\4--4--2---------------------------
B|------5---------7-5---5---------------2----5-5/7\5-------------------
G|--3/6-----------------6------6--------2------------4/6\4-------------
D|-----------0----------7----7----------4------------------------------
A|--------0------------------------------------------------------------
E|---------------------------------------------------------------------

Verse II
e|----------------5----------------0--------------
B|-------------7-----------------3----3/5\3-------
G|------7-6----6----6-4--------2------------2-----
D|--4-7-----7--5----7---7--2/4--------------------
A|------------------------------------------------
E|------------------------------------------------

Back To Verse I

Verse III
e|---------------5---9---7--5--5--5------------------------------------
B|-------------7-----10--7--5--5--5-5/7\5----5----------------0--------
G|------7-6----6-----11--8--6--4--2--------6----4/6\4---------2--------
D|--4-7-----7--5--------------------------------------7--2/4--3--------
A|---------------------------------------------------------------------
E|---------------------------------------------------------------------

Verse IV
e|------------8--8/10--7-------------------------------------------------
B|---8--8-----8--8-----8--8-8---8/10-8-----------8/10-8-----------9------
G|---9----9---9--------9------9---------9\5----5---------------9--9------
D|--10-------10------------------------------7--------------------9------
A|--------------------------------------------------------8/10-----------
E|-----------------------------------------------------------------------


e|--------5----------8--7-------6-5--------
B|--5-5---5--8-7----10--8--8----8---6------
G|--6-6-6-6--8-7-7--10--9--9-9--8---7------
D|--7-7---7---------------10--------8------
A|-----------------------------------------
E|-----------------------------------------

Verse V
e|------------8--8/10--7-------------------------------------------
B|---8--8-----8--8-----8--8-8---8/10-8-----------8-----------5-----
G|---9----9---9--------9------9---------9\5----5----7/8\7-5--5-----
D|--10-------10------------------------------7---------------5-----
A|-----------------------------------------------------------------
E|-----------------------------------------------------------------

Verse VI
e|--------5--7/9--7-5------------4/5\4--4--2-------5-7/9-7-------
B|------5---------7-5---5---------------2----5-5/7-------4-------
G|--3/6-----------------6------6--------2----------------4-------
D|-----------0----------7----7----------4----------------4-------
A|--------0------------------------------------------------------
E|---------------------------------------------------------------
[ Tab from: http://www.guitartabs.cc/tabs/t/tohpati/yang_dinanti_tab.html ]
Verse VII
e|----------------5---9--7--5--5--5-----------------------------
B|-------------7------9--7--5--5--5--5/7\5----5-----------------
G|------7-6----6-----10--8--6--4--2---------6----4/6-4----------
D|--4-7-----7--5----------------------------------------7-------
A|--------------------------------------------------------------
E|--------------------------------------------------------------

Solo Part (i call this)
e|---------------------------------------------------------------
B|---------------5/7--5--5/7-5-5-7-------------------------------
G|------2--4/6\4--------6----------6\2-4/6-6-4-4-6---------------
D|--2/4--------------------------------------------2-4-----------
A|---------------------------------------------------------------
E|---------------------------------------------------------------


e|-------------------------------/9------------------------------
B|-----9/10-9--------------------/10-12-10----10-10/12-----------
G|------------11-11----9/11-9-9------------11----------9/11------
D|--11--------------11-------------------------------------------
A|---------------------------------------------------------------
E|---------------------------------------------------------------

e|---------------------------------------------------------------
B|----------------------------------------5----5-8-7-------------
G|--9----9-9/11-------------------------6---5-------7-7----------
D|----11--------9/11--9-7-9-9/11------7--------------------------
A|-------------------------------7--7----------------------------
E|---------------------------------------------------------------

e|--------------5-7-------5-------------5-----5-4-5/7------------
B|----7-8-5-5-8-----7---7---8-5-5-8-7-8-----5---------5----------
G|--7-------------------------------------7----------------------
D|---------------------------------------------------------------
A|---------------------------------------------------------------
E|---------------------------------------------------------------

e|-----12\--8-10-10/12--------------12/15-14-12-12/14--10--------
B|---------------------10-10-10--10------------------------------
G|-/9------------------------------------------------------------
D|---------------------------------------------------------------
A|---------------------------------------------------------------
E|---------------------------------------------------------------

e|----10-10/12-10-10^12^10----------------------------------------------
B|-12----------------------------10-12-12-10--9-10-10/12----------------
G|-------------------------12-12-------------------------9-11/13--13\---
D|-------------------------------------------------------------------9--
A|----------------------------------------------------------------------
E|----------------------------------------------------------------------

To => Verse IV; Verse V; Verse I; Verse II; Verse VI; Verse VII; Verse VII

After playing the last verse, play the A chord
e|~--0--
B|~--2--
G|~--2--
D|~--2--
A|~--0--
E|~-----

I Work Hard for TABBED this song, please send me mail at
mahasiswaelektroub@yahoo.com
Brawijaya University Malang Indonesia
Comments