Toe - Something Beautiful Chords & Tabs

 

Something Beautiful Chords & Tabs

Toe Chords & Tabs

Version: 1 Type: Tab 0 ratings
1 star 2 stars 3 stars 4 stars 5 stars
comments

Something Beautiful Tab

Something Beautiful-T.O.E.
Tabbed by:chris Rider
Tunning:half step down (Dsharp....)
Intro guitar 1-|--|------------------------------------------------------
---------------|--|------------------------------------------------------
------444-----|--|-------------------------------------------------------
-444-444--5-|x4|-4xxxxxxxxxxxxxxxxx(this isnt the real length to P.M.)---
-444-222--5-|--|--4xxxxxxxxxxxxxxxxx-------------------------------------
-222-------3-|--|--2xxxxxxxxxxxxxxxxx------------------------------------
strum this chord a bunch
Lead-Guitar---
-----------------
--11------------
--x-------------
--9-------------
----------------
verse G1&2
---------------------------------
---------------------------------
-------------777777-------9999---
444444444444-777777--7777-9999---
444444444444-555555--7777-7777---
222222222222---------5555--------
Chorus
---------------------------------------------
---------------------------------------------
----------7777777777---------------7777777777
777777777-7777777777--444--444--7777777777---  X2
777777777-5555555555--444--444--5555555555---
555555555-------------222--222---------------
for the lead chorus its all the same EXCEPT for when rythem playes the part in the second fret lead just strums the same note as it does at the beginning of the song
Solo part--------------------------------------------------------------------------
----2-0-2------2-0-2-------2-0-2------2-0-2-----2-0-2----2-0-2---2-0-2------2-0-2--
-----------2-----------2---------2----------2---------2-------2--------2---2-------
-------------------------0----------0---------------------------0--------0---------
0------------0---------------------------------2--------2--------------------------
-----------------------------------------------------------------------------------

----------------------------------------------
----------------------------------------------
-------------7------------4xxxxxxx--xxxxxxxx7-
7xxxxxxxx-7xxxxxxxx-4xxxxxxx--xxxxxxxx7-------
7xxxxxxxx-5xxxxxxxx-2xxxxxxx-5xxxxxxxx5-------
5xxxxxxxx-------------------------------------
go back to chorus
and tthan play this
-----------------------------------
-----------------------------------
4444444-77777777-------------------
4444444-77777777-77777777777777----X4
2222222-55555555-77777777777777----
------------------------55555555555555----
than this part  strum a bunch of times
-R.G.-----------|-L.G.--^^^^
----------------|--------^^^^
----------------|11-----------
-444-444-444-44-|-x------------
-444-444-444-44-|-9------------
-222-222-222-22-|--------------

i just want to say that T.o.e is a really good band but i love blink more!!!
[ Tab from: http://www.guitartabs.cc/tabs/t/toe/something_beautiful_tab.html ]
Comments