Todd Rundgren - Bang The Drum All Day Chords & Tabs

 

Todd Rundgren Chords & Tabs

Version: 1 Type: Bass Tab 0 ratings
1 star 2 stars 3 stars 4 stars 5 stars
comments

Bang The Drum All Day Bass Tab

Tabbed By : zen 
e-mail: zenon1313@aol.com

the begin of the solo is also the intro to the song




main riff
G|---------------------------------|
D|------00-------00----------------|
A|---------2p0------2--------0-2h3-|x4
E|---------------------3---3-------|

G|-----------------------------------------------------------------------|
D|---------00-22-33-44-55-33-22-00------00------00-----------------------|
A|-----------------------------------------2p0-----2-----02h3------------|
E|---------------------------------------------------3--3----------------|
[ Tab from: http://www.guitartabs.cc/tabs/t/todd_rundgren/bang_the_drum_all_day_btab.html ]
G|--------------------------------------00-22-33--44---------|
D|--00------00--------------00-22-33-44----------------------|
A|-----2p0-----2------02h3-----------------------------------|
E|--------------3---3----------------------------------------|
then repeat the main riff 3times 

G|-----------------00-22-33-44-----------------------------------------|
D|-----00-22-33-44-----------------------------------------------------|
A|---------------------------------------------------------------------|
E|---------------------------------------------------------------------|

Comments