Todd Josh - Mind Infection Chords & Tabs

 

Mind Infection Chords & Tabs

Todd Josh Chords & Tabs

Version: 1 Type: Tab 1 rating
1 star 2 stars 3 stars 4 stars 5 stars
comments

Mind Infection Tab

   
Mind Infection
Performed by Josh Todd
Tabbed by Andrew Hofschulte

Intro/Chorus/ Verse (different rhythm)

E--------------------------------
B--------------------------------
G-7-7-7-7-7-7-2-2-4-4-4-4-3-3-3-2
D-5-5-5-5-5-5-0-0-2-2-2-2-1-1-1-0
A-5-5-5-5-5-5-0-0-2-2-2-2-1-1-1-0
D-5-5-5-5-5-5-0-0-2-2-2-2-1-1-1-0

[ Tab from: http://www.guitartabs.cc/tabs/t/todd_josh/mind_infection_tab.html ]
Post Chorus breakdown

E---------------
B---------------
G-7-7-6-5-4-3---
D-5-5-4-3-2 1---
A-5-5-4-3-2 1---
D-5-5-4-3-2-1---


Bridge

E--------------------------------
B--------------------------------
G--------------------------------
D-0-0-0-0-0-0-0-0-1-1-1-1-5-5-5-5
A-0-0-0-0-0-0-0-0-1-1-1-1-5-5-5-5
D-0-0-0-0-0-0-0-0-1-1-1-1-5-5-5-5
Comments