Todd Agnew - Grace Like Rain Chords & Tabs

 

Grace Like Rain Chords & Tabs

Todd Agnew Chords & Tabs

Version: 1 Type: Tab 1 rating
1 star 2 stars 3 stars 4 stars 5 stars
comments

Grace Like Rain Tab

   
Intro

e--------------------2--|
B---------1---------3---|
G----3---0-----0---2----|
D---2---2-----0---0-----|
A--1---3-----2----------|
E-0---------3-----------|  (x2)

Chords:

Em: 022000
 C: X32010
 G: 320003
 D: XX0232


Em           C          G             D
     Amazing Grace    how sweet   the Sound
          Em          C         G      D
    that saved    a wretch   like me
       Em          C        G         D
    i once   was lost   but now   im found
          Em         C         G             D (Dsus4  D)
     was blind    but now    i see     so clearly

[ Tab from: http://www.guitartabs.cc/tabs/t/todd_agnew/grace_like_rain_tab.html ]
Chorous
Em      C                G                      D
   Halleluja  Grace like rain      falls down on me
Em       C                 G                     D
   Halleluja   and all my stains   are washed away they're washed away

Em    C    G    D


Verse 2 (same as verse 1)

twas Grace that taught my heart to fear
and Grace my fears relieved
how precious did that Grace appear
the hour I first believed   that I first believed

Chorous (twice)

Verse 3 (same as verses 1 and 2)

when we've been there  ten thousand years
bright shining  as the Son
we've no less days to sing Your praise
than when we first begun

Chorous 2 or 3 times


Outro/end

e-----------------------------------------2--|
B-----------------------------------3--------|
G--------0-------1---------------------2-----|
D----2-------0--------0-------0---0----------|
A------2-------2---------2-------------------|
E--0-------3--------3------------------------|     (x2)

If you don't like how this sounds or can't figure out how to play it, just play the 
and end by raking Em.

Please rate this song!  I need to know if it's any good.

-Cari
Look for tabs and chords for other worship songs that I improvise.
Comments