Tocotronic - This Boy Is Tocotronic Chords & Tabs

 

This Boy Is Tocotronic Chords & Tabs

Tocotronic Chords & Tabs

Version: 2 Type: Tab 0 ratings
1 star 2 stars 3 stars 4 stars 5 stars
comments

This Boy Is Tocotronic Tab

   
Tabber:SanKa from Deathstrings
Artist:Tocotronic
Title:This Boy Is Tocotronic


This is my first tab. I saw the basstab and found out, that the guitartab 
is pretty much the same, just with powerchords.

Intro:
e:----------------------|----------|
B:--------7-------------|----------|
G:--------7-------------|----------|
D:---55---9-5--3--5--5--|---5-(5)--|
A:---55-----5--3--5--5--|---5-(5)--|
E:---77-----7--5--7--7--|---7-(7)--|

Verses/Chorus/While the solo is playing:
e:---------------------------------|
B:---------------------------------|
G:-----x-x----0--0-0--0-0-0-0------|
D:--0-0x-x--0-0--0-0--0-0-0-0------|
A:--0-00-0--0-2--2-2--2-2-2-2------|
E:--2-2-----2----------------------|

Interlude:
e:---------------------------------------------------------------|
B:---------------------------------------------------------------|
G:-----x-x-------------------------------------------------------|
D:-0-0-x-x-0--3-3-3-3-3-3-3-3-2-2-2-2-2-2-2-2-1-1-1-1-1-1-1-1-1--|
A:-0-0-0-0-0--3-3-3-3-3-3-3-3-2-2-2-2-2-2-2-2-1-1-1-1-1-1-1-1-1--|
E:-2-2-----2--5-5-5-5-5-5-5-5-4-4-4-4-4-4-4-4-3-3-3-3-3-3-3-3-3--|
[ Tab from: http://www.guitartabs.cc/tabs/t/tocotronic/this_boy_is_tocotronic_tab_ver_2.html ]
Pre-Chorus:
e:-------------------------------------------------------------------|
B:-------------------------------------------------------------------|
G:--2-2-2-2-2-2-2-2-2-2-2-2-2-2-2-2-0-0-0-0-0-0-0-0-0-0-0-0-0-0-0-0--|
D:--2-2-2-2-2-2-2-2-2-2-2-2-2-2-2-2-0-0-0-0-0-0-0-0-0-0-0-0-0-0-0-0--|
A:--4-4-4-4-4-4-4-4-4-4-4-4-4-4-4-4-2-2-2-2-2-2-2-2-2-2-2-2-2-2-2-2--|
E:-------------------------------------------------------------------|

e:-------------------------------------------------------------------------------|
B:-------------------------------------------------------------------------------|
G:-------------------------------------------------------------------------------|
D:-0-0-0-0-0-0-0-0-0-3-3-3-3-3-3-3-3-3-2-2-2-2-2-2-2-2-2-1-1-1-1-1-1-1-1-1-0-(0)-|
A:-0-0-0-0-0-0-0-0-0-3-3-3-3-3-3-3-3-3-2-2-2-2-2-2-2-2-2-1-1-1-1-1-1-1-1-1-0-(0)-|
E:-2-2-2-2-2-2-2-2-2-5-5-5-5-5-5-5-5-5-4-4-4-4-4-4-4-4-4-3-3-3-3-3-3-3-3-3-2-(2)-|



Intro
Verse1
Interlude
Verse2
Pre-Chorus
Chorus
Solo
Verse3
Interlude
Verse4
Pre-Chorus
Chorus


I hope it is good, but i'm not sure. if anything's wrong laugh about me.
Thanks to Christian Reindel(he wrote the basstab as a basis for this)
Fuck Ace and enjoy this tab.

SanKa
Comments