Toby Lightman - Is This Right Chords & Tabs

 

Is This Right Chords & Tabs

Toby Lightman Chords & Tabs

Version: 1 Type: Tab 0 ratings
1 star 2 stars 3 stars 4 stars 5 stars
comments

Is This Right Tab

Artist: Toby Lightman
Song: Is This Right
Tabbed From: VH1 acoustic version
Tabbed By: Jo Lefebure (whipy@hotmail.com)

(1)                             (2)

e|-------------------------------|-------3--3--|
b|--2--3--3p2--0h2-2----1--0--3--|--1----3--3--|
g|--2--2--2----2---2----0--0--0--|--2----0--0--|
d|--2--2--2----2---2----2--2--2--|--3----0--0--|
a|--0--0--0----0---0----3--3--3--|--3----2--2--|
e|-------------------------------|-------3--3--|

(3)
[ Tab from: http://www.guitartabs.cc/tabs/t/toby_lightman/is_this_right_tab.html ]
e|------------0-------|------------0----0--|
b|--3----3----0----3--|--3----3----0----0--|
g|--2----0----4----0--|--2----0----4----4--|
d|--0----2----4----4--|--0----2----4----4--|
a|--0----2----x----5--|--0----2----x----x--|
e|------------2-------|------------2----2--|

(4)

e|----------|
b|--2----3--|
g|--2----0--|
d|--2----2--|
a|--0----3--|
e|----------|

(5)

e|--0--0h2----0--0h2--|
b|--3--3------3--3----|
g|--2--2------2--2----|
d|--0--0------0--0----|
a|--------------------|
e|--------------------|
Comments