Toby Keith - Mockingbird Chords & Tabs

 

Mockingbird Chords & Tabs

Toby Keith Chords & Tabs

Version: 1 Type: Bass Tab 0 ratings
1 star 2 stars 3 stars 4 stars 5 stars
comments

Mockingbird Bass Tab

   
-------------------------------------------------------------------------------
			     MOCKINGBIRD - Toby Keith
-------------------------------------------------------------------------------

Tabbed By : Kris Cox

** Bass Tab **
It's a little simpler than the actual bass line, but it gets the job done without too much thought.


Repeat for Intro...

G|-----------------------------------|
D|-----------------------------------|
A|-----------------------------------|
E|---3-4-5-6-6-6-6-6-6-6-6-6-6-6-6-6-|


Initial Progression (twice) ...

Eb-Bb-Eb-Ab-Eb-Bb-Ab-Bb

G|-------------------|
D|--------5-6-7-8----|  x2
A|---6---------------|
E|-------------------|

G|-------------------|
D|-------------------|  x4
A|--------5-6-7-8----|
E|---6---------------|

G|-------------------|
D|--------5-6-7-8----|  x2
A|---6---------------|
E|-------------------|

G|-------------------|
D|-------------------|  x2
A|--------3-4-5-6----|
E|---4---------------|

G|-------------------|
D|--------5-6-7-8----|  x2
A|---6---------------|
E|-------------------|

G|-------------------|
D|-------------------|
A|--------5-6-7-8----|
E|---6---------------|
[ Tab from: http://www.guitartabs.cc/tabs/t/toby_keith/mockingbird_btab.html ]
G|-------------------|------------------|
D|-------------------|------------------|
A|--------3-4-5-6----|------------------|
E|---4---------------|---6--6-----------|


Solo/Bridge...

Eb-Bb-Ab-Bb

G|-------------------|
D|--------5-6-7-8----|  x2
A|---6---------------|
E|-------------------|

G|-------------------|
D|-------------------|  x3
A|--------5-6-7-8----|
E|---6---------------|

G|-------------------|------------------|
D|-------------------|------------------|
A|--------3-4-5-6----|------------------|
E|---4---------------|---6--6-----------|



Modulated Progression...

F#-C-F#-Bb-F#-C-Bb-C

G|-------------------|
D|--------7-8-9-10---|  x2
A|---8---------------|
E|-------------------|

G|-------------------|
D|-------------------|  x4
A|--------7-8-9-10---|
E|---8---------------|

G|-------------------|
D|--------7-8-9-10---|  x2
A|---8---------------|
E|-------------------|

G|-------------------|
D|-------------------|  x2
A|--------5-6-7-8----|
E|---6---------------|

G|-------------------|
D|--------7-8-9-10---|  x2
A|---8---------------|
E|-------------------|

G|-------------------|
D|-------------------|
A|--------7-8-9-10---|
E|---8---------------|

G|-------------------|------------------|
D|-------------------|------------------|
A|--------5-6-7-8----|------------------|
E|---6---------------|---8--8-----------|


et cetera...
Comments