Toadies - Tyler Chords & Tabs

 

Tyler Chords & Tabs

Toadies Chords & Tabs

Version: 4 Type: Tab 0 ratings
1 star 2 stars 3 stars 4 stars 5 stars
comments

Tyler Tab

   
  __________________________________________________________ 
||                                                          ||
||                           Tyler                          ||
||__________________________________________________________||

As performed by the Toadies on "Rubberneck."
Original transcription by Ranjit Survanshi
Edited and perfected by corrupted_angel_X

This tab is more of an upgrade if you will from Ranjit Survanshi's kick ass tab.
I simply filled in the blanks.  

Tuning: Standard (E A D G B E)
Timing: 4/4

Intro/Riff A (Guitar 1)
|-------------------
|--7---7---7---7----
|----7---7---7---7-- x2
|-------------------
|-------------------
|-------------------

Verse/Chorus/Main Riff for Guitar 1
|-------------------------------------
|--7---7---7---7---7---7---7-----8----
|----7---7---7---7---6---6---6/7---7--
|-------------------------------------
|-------------------------------------
|-------------------------------------

Verse/Main Riff for Guitar 2
   D                     F#   F#                    G
|--2--2--2----2-2-2-2--x-2-----------------------------
|--3--3--3----3-3-3-3--x-2-----------------------------
|--2--2--2----2-2-2-2--x-3----3--3--3----3-3-3-3--x-4--
|--0--0--0----0-0-0-0--x-4----4--4--4----4-4-4-4--x-5--
|-----------------------------4--4--4----4-4-4-4--x-5--
|-----------------------------2--2--2----2-2-2-2--x-3--
  PM...       .....           ....       .....
[ Tab from: http://www.guitartabs.cc/tabs/t/toadies/tyler_tab_ver_4.html ]
OR
   D                     F#   F#                    G
|------------------------------------------------------
|------------------------------------------------------
|--7--7--7----7-7-7-7--x-11----------------------------
|--7--7--7----7-7-7-7--x-11---4--4--4----4-4-4-4--x-5--
|--5--5--5----5-5-5-5--x-9----4--4--4----4-4-4-4--x-5--
|-----------------------------2--2--2----2-2-2-2--x-3--
  PM...       .....           ....       .....

Note: The chords played above are D,F# & G.  Now you can either play the actual
chords, or you can play the siplified powerchords.  I prefer the full chords
during this part, and the powerchords during the chorus.

Bass Riff (played throughout the song)
|--------------------------------------
|--0-0-0-0-2-4/-9----\4-4-4-4-4-4-5-5--
|--------------------------------------
|--------------------------------------

Chorus (Also played as a premature chorus in the first Verse)
   D       A    B    F#           G
|---------------------------------------
|---------------------------------------
|--7-7-7-7------------------------------
|--7-7-7-7-7-xx-9-xx-4-4-4-4-4-xx-5-xx--
|--5-5-5-5-7-xx-9-xx-4-4-4-4-4-xx-5-xx--
|----------5-xx-7-xx-2-2-2-2-2-xx-3-xx--

Riff B (Guitar 1; after first Chorus)
|-------------------------------------
|--3---3---3---3---2---2---2-----3----
|----2---2---2---2---3---3---3/4---4--
|-------------------------------------
|-------------------------------------
|-------------------------------------

Those are all of the riffs.  Toss in a little feedback here and there and listen
to the song to get the complete structure.  None of it's difficult.  Enjoy.
Comments