Toadies - Tyler Chords & Tabs

 

Tyler Chords & Tabs

Toadies Chords & Tabs

Version: 2 Type: Bass Tab 0 ratings
1 star 2 stars 3 stars 4 stars 5 stars
comments

Tyler Bass Tab

                  -=-=-=-=-=- Tyler -=-=-=-=-=-
             by Toadies from the album "Rubberneck"
            Tabbed by Dave Miller (dwm3@po.cwru.edu)

-=-=-=-=-=-=-=-=-=-=-=-=-=-=-=-=-=-=-=-=-=-=-=-=-=-=-=-=-=-=-=-=-=-=-=-=-=-=-=-
   As with most Toadies songs, this is a simple song that is
   pretty much straight forward.  Even though it's easy, it is
   quite powerful.  


   Choose from over 600 more tabs at the Bass Tab Archive at:
[ Tab from: http://www.guitartabs.cc/tabs/t/toadies/tyler_btab_ver_2.html ]
         http://b63240.student.cwru.edu/bta/bta.shtm
   
   If you have any submissions for the archive, feel free to mail them to
   me at dwm3@po.cwru.edu.

   Enjoy!                                                                                   
-=-=-=-=-=-=-=-=-=-=-=-=-=-=-=-=-=-=-=-=-=-=-=-=-=-=-=-=-=-=-=-=-=-=-=-=-=-=-=-


Verse

G | |---------------------------------
D |0|-------------9--4-4-4-4-4-4-5-5--
A |0|-5-5-5-5-7h9---------------------
E | |---------------------------------


Chorus

G | |---------------------------------
D |0|-----7---------------------------
A |0|-5-5---5----------4--------------
E | |---------5-7--2-2---2-2-2-3-3----


Comments