Toadies - Possum Kingdom Chords & Tabs

 

Possum Kingdom Chords & Tabs

Toadies Chords & Tabs

Version: 3 Type: Bass Tab 0 ratings
1 star 2 stars 3 stars 4 stars 5 stars
comments

Possum Kingdom Bass Tab

   
-------------------------------------------------------------------------------
			     Possum Kingdom- The Toadies
-------------------------------------------------------------------------------
Tabbed By : CandyForNixon
e-mail: candyfornixon@yahoo.com

Tuning:STANDARD

This is a really fun and easy song to learn and play.  Awesome band!

Intro/Verse

G|-----|---------------------------------------------------------------------|
D|-----|---------------------------------------------------------------------|
A|-----|---------------------------------------------------------------------|
E|5-5--|--0-0--0-0--0-0--5---0-0--0-0--0-0--5-5------------------------------|

X4

Bridge

G|---------------------------------------------------------------------------|
D|---------------------------------------------------------------------------|
A|---------------------------------------------------------------------------|
E|0-0-3-4----0-0-3-4----0-0-3-4--5----0-0-3-4----0-0-3-4----0-0-3-4--5-5-----|

X 4

Chorus

G|---------------------------------------------------------------------------|
D|---------------------------------------------------------------------------|
A|---------------------------------3-3-2-1----0-0-0-0------------------------|
E|2-2-2-2----5-5-5-5----0-0-0-0--------------------------2-2-2-2-------------|

Middle

G|---------------------------------------------------------------------------|
D|---------------------------------------------------------------------------|
A|---------------------------------------------------------------------------|
E|0-0-0-0----0-0-0-0----4-4-4-4----4-4-4-4-----------------------------------|
[ Tab from: http://www.guitartabs.cc/tabs/t/toadies/possum_kingdom_btab_ver_3.html ]
  Give it up to me..........
G|------------------------6-6-6-6--------------------------------------------|
D|--7-7-7-7----6-6-6-6----6-6-6-6----4-4-4-4---------------------------------|
A|--7-7-7-7----6-6-6-6---------------4-4-4-4---------------------------------|
E|---------------------------------------------------------------------------|

G|-------------6-6-6-6----7-7-7-7----5-5-5-5---------------------------------|
D|--6-6-6-6----6-6-6-6----7-7-7-7----5-5-5-5---------------------------------|
A|--6-6-6-6------------------------------------------------------------------|
E|---------------------------------------------------------------------------|

G|--6-6-6-6------------------------------------------------------------------|
D|--6-6-6-6------------------------------------------------------------------|
A|---------------------------------------------------------------------------|
E|------------7-7------------------------------------------------------------|

X3

G|---------------------------------------------------------------------------|
D|-------------4-4-4-4-------------------------------------------------------|
A|-------------4-4-4-4-------------------------------------------------------|
E|--5-5-5-5------------------------------------------------------------------|

Break

G|---------------------------------------------------------------------------|
D|---------------------------------------------------------------------------|
A|---------------------------------------------------------------------------|
E|--0-0-3/4--0-0-3/4--0-0-3/4--5\4----0-0-3/4--0-0-3/4--0-0-3/4--5\4-5\4-----|

X8


Song Structure:

Intro/Verse..........X4
Bridge...............X4
Chorus
Verse................X4
Bridge...............X2
Chorus
Middle
Break
Chorus

| /  slide up
| \  slide down
| h  hammer-on
| p  pull-off
| ~  vibrato
| +  harmonic
| x  Mute note
===============================================================================
Comments