Toadies - Little Sin Chords & Tabs

 

Little Sin Chords & Tabs

Toadies Chords & Tabs

Version: 3 Type: Tab 0 ratings
1 star 2 stars 3 stars 4 stars 5 stars
comments

Little Sin Tab

The Toadies are a band that started in 
1989 ended in 2000.

d= drag to
X= mute

Intro
[---5--4--5--5--x-x----5--4--5--5--x-x--]
[-4-------------x-x--4-------------x-x--]
[---------------x-x----------------x-x--]
[---------------x-x----------------x-x--]
[---------------x-x----------------x-x--]
[---------------x-x----------------x-x--]
                                        
                                        
                                        
Verse
[-------5--4--5--5----------------------]
[-----4---------------------------------]
[---------------------------------------]
[---------------------------------------]
[---------------------------------------]
[---------------------------------------]

Repeat til' the chores
[ Tab from: http://www.guitartabs.cc/tabs/t/toadies/little_sin_tab_ver_3.html ]
Chores
[---2-2-2-2-0-2-2-2-2-0-2-2-2-2-0-2-2---]
[---4-4-4-4-4-4-4-4-4-4-4-4-4-4-4-4-4---]
[---------------------------------------]
[---------------------------------------]
[---------------------------------------]
[---------------------------------------]


This is not the exact number of strums 
just listen to it and you will get it


[----0----5----7d13---------------------]
[----2----7----9------------------------]
[---------------------------------------]
[---------------------------------------]
[---------------------------------------]
[---------------------------------------]


Repeat the verse


[--0-0-3-0-3-0-0-3-0-3-0-3-5-3-0--------]
[---------------------------------------]
[---------------------------------------]
[---------------------------------------]
[---------------------------------------]
[---------------------------------------]

Repeat Verse during the solo

After the Verse the drums will beat pause beat pause
after that reapet the verse again
Comments