Toadies - Away Chords & Tabs

 

Away Chords & Tabs

Toadies Chords & Tabs

Version: 2 Type: Tab 0 ratings
1 star 2 stars 3 stars 4 stars 5 stars
comments

Away Tab

Away
Toadies


Intro 

E------------------------------------------------------------------|
B-------------10b11r10-------10b11r10-------10-12-12b13-13r12-10---|
G-------11-11----------10-10----------11-11------------------------|
D------------------------------------------------------------------|
A------------------------------------------------------------------|
E------------------------------------------------------------------|

Verses


E------2--------1--------2-----------------|
B------2--------1--------2-----------------|
G--3-3-3----2-2-2----3-3-3------5-5-5-5-5--|
D--4-4-4----3-3-3----4-4-4------5-5-5-5-5--|
A--4-4-4----3-3-3----4-4-4------3-3-3-3-3--|
E--2-2-2----1-1-1----2-2-2-----------------|
PM . .      . .      . .    

Pre-Chorus 

E------------------------------------------------------------4-4-4-4--|
B------------------------------------------------------------4-4-4-4--|
G------------------------------------------------------------5-5-5-5--|
D---4-4-4-4-4-4-4-4-3-3-3-3-3-3-3-3-\7-7-7-7-7-7-7-7-6-6-6-6-6-6-6-6--|
A---4-4-4-4-4-4-4-4-3-3-3-3-3-3-3-3-\7-7-7-7-7-7-7-7-6-6-6-6-6-6-6-6--|
E---2-2-2-2-2-2-2-2-1-1-1-1-1-1-1-1-\5-5-5-5-5-5-5-5-4-4-4-4-4-4-4-4--|
P.M.........................................................

Chorus
[ Tab from: http://www.guitartabs.cc/tabs/t/toadies/away_tab_ver_2.html ]
E------------------------------------------------------------------|
B------------------------------------------------------------------|
G--7--7-7-7-7-7-7------------------7--7-7-7-7-7-7------------------|
D--7--7-7-7-7-7-7--7--7-7-7-7-7-7--7--7-7-7-7-7-7--6--6-6-6-6-6-6--|
A--5--5-5-5-5-5-5--7--7-7-7-7-7-7--5--5-5-5-5-5-5--4--4-4-4-4-4-4--|
E------------------5--5-5-5-5-5-5----------------------------------|

Bridge 

E--------------------------------------------------------------|
B--------------------------------------------------------------|
G--4-4-4-------------------4-4-4--------------------7----------|
D--4-4-4---7-7-7----4/7----4-4-4----7-7-7----4/7----7----7-----|
A--2-2-2---7-7-7----4/7----2-2-2----7-7-7----4/7----5----7-----|
E----------5-5-5----2/5-------------5-5-5----2/5---------5-----|
PM . .     . .             . .      . .           

Solo
E-----------------------------5-5-5---7-8-5---------------------------5-7b-|
B-----------------------------7-7-5---7-8-5------------------------5-------|
G-5b----5----------5--------------------------7b-5----------5^7------------|
D-----------7-5-7-----7b-5--------------------------7-5-7------------------|
A--------------------------------------------------------------------------|
E--------------------------------------------------------------------------|

SOLO (fill)

E---------5-8b----|
B-----------------|
G---5^7-----------|
D-----------------|
A-----------------|
E-----------------|
Comments