Toad The Wet Sprocket - Little Buddha Chords & Tabs

 

Little Buddha Chords & Tabs

Toad The Wet Sprocket Chords & Tabs

Version: 1 Type: Tab 0 ratings
1 star 2 stars 3 stars 4 stars 5 stars
comments

Little Buddha Tab

   
##################################################################################
# This file is the author's own work and represents their interpretation of the  #
# song. You may only use this file for private study, scholarship, or research.  #
##################################################################################


Toad the Wet Sprocket- Little Buddha from album 'Coil'
-----------------------------------------------------



Verses:

  D2             B2             G2                A7

e ------0---------------------------------------------------------

B -----------3---------1--------------0-------------------2-------
[ Tab from: http://www.guitartabs.cc/tabs/t/toad_the_wet_sprocket/little_buddha_tab.html ]
G ----2--------------------3--------------2--------------------0--

D -0-----------------3----------------------------------2---------

A ---------------1------------------2--------------0--------------

E ------------------------------3---------------------------------


Chorus:

    
e ----------------------------------------0-------------------3-----

B -----1--------3-----------1----1-----2------2-------3-------3-----

G ----3-------2---------3-----------0-------------------3-----4-----

D --3-------3--------3--------3---------------------3---------5-----

A 1-------2-------1--------3----------------------------------5-----

E ------------------------------------------------3-------1---3-----
Comments