To My Surprise - Get It To Go Chords & Tabs

 

Get It To Go Chords & Tabs

To My Surprise Chords & Tabs

Version: 2 Type: Tab 0 ratings
1 star 2 stars 3 stars 4 stars 5 stars
comments

Get It To Go Tab

   
-----------------------------------------------------------------------------
			     Get it to go - To my surprise
-----------------------------------------------------------------------------
Tabbed by: Roy H
Email: Roy_h@hotmail.com

Tuning: Eadgbe

   Intro                                                                    X4
e|--------------------------------------------------------------------------|
B|--------------------------------------------------------------------------|
G|--------------------------------------------------------------------------|
D|--------------------------------------------------------------------------|
A|---0-0-0-0-0--0-0-0-0-0--0-0-0-0--3-3-3-3-3--3-3-3-3-3--3-3-3-3-----------|
E|--------------------------------------------------------------------------|
   On the third time intro riff, this played this comes in. The rest of the intro you
just hit the same tone lightly to make the "noise" in the background
e|--------------------------------------------------------------------------|
B|--------------------------------------------------------------------------|
G|----10--------------------------------------------------------------------|
D|----12^(13)---------------------------------------------------------------|
A|--------------------------------------------------------------------------|
E|--------------------------------------------------------------------------|
                                                                           X2
e|--------------------------------------------------------------------------|
B|--------------------------------------------------------------------------|
G|---2-2-2-2-2--2-2-2-2-2--2-2-2-2--5-5-5-5-5--5-5-5-5-5--5-5-5-5-----------|
D|---2-2-2-2-2--2-2-2-2-2--2-2-2-2--5-5-5-5-5--5-5-5-5-5--5-5-5-5-----------|
A|---0-0-0-0-0--0-0-0-0-0--0-0-0-0--3-3-3-3-3--3-3-3-3-3--3-3-3-3-----------|
E|--------------------------------------------------------------------------|
Verse:                                                                     X4
e|--------------------------------------------------------------------------|
B|--------------------------------------------------------------------------|
G|--------------------------------------------------------------------------|
D|--------------------------------------------------------------------------|
A|---0-0-0-0-0--0-0-0-0-0--0-0-0-0--3-3-3-3-3--3-3-3-3-3--3-3-3-3-----------|
E|--------------------------------------------------------------------------|
[ Tab from: http://www.guitartabs.cc/tabs/t/to_my_surprise/get_it_to_go_tab_ver_2.html ]
Chorus: Let last chords ring                                               X1
e|--------------------------------------------------------------------------|
B|--------------------------------------------------------------------------|
G|----2-2-2-2-2-2-5--------------7--2-2-2-2-2-2-5--------------7------------|
D|----2-2-2-2-2-2-5--5-5-5-5-5-5-7-2-2-2-2-2-2-5--5-5-5-5-5-5-7------------|
A|----0-0-0-0-0-0-3--5-5-5-5-5-5-5--0-0-0-0-0-0-3--5-5-5-5-5-5-5------------|
E|-------------------3-3-3-3-3-3-------------------3-3-3-3-3-3--------------|

Verse:                                                                     X4
e|--------------------------------------------------------------------------|
B|--------------------------------------------------------------------------|
G|--------------------------------------------------------------------------|
D|--------------------------------------------------------------------------|
A|---0-0-0-0-0--0-0-0-0-0--0-0-0-0--3-3-3-3-3--3-3-3-3-3--3-3-3-3-----------|
E|--------------------------------------------------------------------------|

Chorus: Let last chords ring                                               X2
e|--------------------------------------------------------------------------|
B|--------------------------------------------------------------------------|
G|----2-2-2-2-2-2-5--------------7--2-2-2-2-2-2-5--------------7------------|
D|----2-2-2-2-2-2-5--5-5-5-5-5-5-7-2-2-2-2-2-2-5--5-5-5-5-5-5-7------------|
A|----0-0-0-0-0-0-3--5-5-5-5-5-5-5--0-0-0-0-0-0-3--5-5-5-5-5-5-5------------|
E|-------------------3-3-3-3-3-3-------------------3-3-3-3-3-3--------------|

Verse:                                                                     X4
e|--------------------------------------------------------------------------|
B|--------------------------------------------------------------------------|
G|---2-2-2-2-2--2-2-2-2-2--2-2-2-2--5-5-5-5-5--5-5-5-5-5--5-5-5-5-----------|
D|---2-2-2-2-2--2-2-2-2-2--2-2-2-2--5-5-5-5-5--5-5-5-5-5--5-5-5-5-----------|
A|---0-0-0-0-0--0-0-0-0-0--0-0-0-0--3-3-3-3-3--3-3-3-3-3--3-3-3-3-----------|
E|--------------------------------------------------------------------------|

Outro:                                                                     X2
e|--------------------------------------------------------------------------|
B|--------------------------------------------------------------------------|
G|--------------------------------------------------------------------------|
D|--------------------------------------------------------------------------|
A|---3-3-3-3-3-3-3--3-3-3-3-3-3-3--3-3-3-3-3-3-3--3-3-3-3-3-3-3-------------|
E|--------------------------------------------------------------------------|


That's it. Hope you enjoy. It is a bot more accurate than the other "get it to go"
tabs out there. Could not figure the solo though. Plz rate.


| /  slide up
| \  slide down
| h  hammer-on
| p  pull-off
| ~  vibrato
| +  harmonic
| x  Mute note
=============================================================================
Comments