To My Surprise - Get It To Go Chords & Tabs

 

Get It To Go Chords & Tabs

To My Surprise Chords & Tabs

Version: 1 Type: Tab 0 ratings
1 star 2 stars 3 stars 4 stars 5 stars
comments

Get It To Go Tab

normal tuneing EABDGe

i couldent find this tab enywhere so i tabed it my self but couldent do the solo so i 
got the chords
[ Tab from: http://www.guitartabs.cc/tabs/t/to_my_surprise/get_it_to_go_tab.html ]
intro\verse
|-----------------------------------------------------------------|
|-----------------------------------------------------------------|
|-----------------------------------5-5-5-5-5---5-5-5-5-5---5-5-5-|
|-7-7-7-7-7----7-7-7-7-7----7-7-7---5-5-5-5-5---5-5-5-5-5---5-5-5-|
|-7-7-7-7-7----7-7-7-7-7----7-7-7---3-3-3-3-3---3-3-3-3-3---3-3-3-|
|-5-5-5-5-5----5-5-5-5-5----5-5-5---------------------------------|


chorus
|---------------------------|
|---------------------------|
|--------------------7------|
|-7------10----5-----7------|
|-7------10----5-----5------|
|-5------8-----3------------|

outro
|----------------|
|----------------|
|--5-5-5-5-5-5---|
|--5-5-5-5-5-5---|
|--3-3-3-3-3-3---|
|----------------|

intro\chorus x6 the first 2 are play a bit more agressivly
verse        x2
intro\chorus x4
verse        x4
intro\chorus x4
outro        x8
Comments