Tnt - Stolen Chords & Tabs

 

Stolen Chords & Tabs

Tnt Chords & Tabs

Version: 1 Type: Tab 0 ratings
1 star 2 stars 3 stars 4 stars 5 stars
comments

Stolen Tab

   
-------------------------------------------------------------------------------
			     Stolen - TNT
-------------------------------------------------------------------------------
Tabbed by:MATT
Email:
Tips:Played with light distortion or on an acoustic

Tuning:E,A,D,G,B,E
[ Tab from: http://www.guitartabs.cc/tabs/t/tnt/stolen_tab.html ]
INTRO
e|---------------------------------|----------------------------------------|
B|---------------------------------|----------------------------------------|
G|---------------------------------|----------------------------------------|
D|-5-5-5-x---------3-3-3-x---------|-5-5-5-x---------3-3-3-x----------------|
A|-3-3-3-x-3-3-3-x-1-1-1-x-5-5-5-x-|-3-3-3-x-3-3-3-x-1-1-1-x-5--------------|
E|---------1-1-1-x---------3-3-3-x-|---------1-1-1-x---------3--------------|
							     Hold Note
VERSE x4
e|---------------------------------|-----------------------------------------|
B|---------------------------------|-----------------------------------------|
G|---------------------------------|-----------------------------------------|
D|-5-5-5-5-5-5-5-5-3-3-3-3---------|-----------------------------------------|
A|-3-3-3-3-3-3-3-3-1-1-1-1-3-3-3-3-|-----------------------------------------|
E|-------------------------1-1-1-1-|-----------------------------------------|
  PM--------|     PM---------------------------------------------------------|
CHORUS x2
e|--------------------------------------------------------------------------|
B|--------------------------------------------------------------------------|
G|--------------------------------------------------------------------------|
D|-5-5-5-5-5-5-5-5-0-----------------0-3-3-3-3-3-3-3-3-0--------------------|
A|-3-3-3-3-3-3-3-3-0-5-5-5-5-5-5-5-5-0-1-1-1-1-1-1-1-1-0-3-3-3-3-3-3-3-3-0--|
E|-------------------3-3-3-3-3-3-3-3---------------------1-1-1-1-1-1-1-1-0--|

BRIDGE x1
e|-----------------------|--------------------------------------------------|
B|-----------------------|--------------------------------------------------|
G|-----------------------|--------------------------------------------------|
D|-5-x-x-x-x-3-x-x-x-x---|--------------------------------------------------|
A|-3-x-x-x-x-1-x-x-x-x-3-|--------------------------------------------------|
E|---------------------1-|--------------------------------------------------|
		       Hold Note
OUTRO x5
1st Guitar
e|-3-h5---3-h5-----|-----------------|-1-h3---1-h3-----|---------------3/---|
B|-----------------|-3-h5---3-h5-----|-----------------|-1-h3---1-h3--------|
G|-----------------|-----------------|-----------------|--------------------|
D|-----------------|-----------------|-----------------|--------------------|
A|-----------------|-----------------|-----------------|--------------------|
E|-----------------|-----------------|-----------------|--------------------|

2nd Guitar
e|-----------------|-----------------|-----------------|--------------------|
B|-----------------|-----------------|-----------------|--------------------|
G|-----------------|-----------------|-----------------|--------------------|
D|-5-5-5-5-5-5-5-5-|-----------------|-3-3-3-3-3-3-3-3-|--------------------|
A|-3-3-3-3-3-3-3-3-|-5-5-5-5-5-5-5-5-|-1-1-1-1-1-1-1-1-|-3-3-3-3-3-3-3-3----|
E|-----------------|-3-3-3-3-3-3-3-3-|-----------------|-1-1-1-1-1-1-1-1----|

ORDER:
INTRO
VERSE
CHORUS
BRIDGE
VERSE
CHORUS
BRIDGE
OUTRO

KEY:
| /  slide up
| \  slide down
| h  hammer-on
| p  pull-off
| ~  vibrato
| +  harmonic
| x  Mute note
===============================================================================
Comments