Tnt - Seven Seas Chords & Tabs

 

Seven Seas Chords & Tabs

Tnt Chords & Tabs

Version: 3 Type: Tab 0 ratings
1 star 2 stars 3 stars 4 stars 5 stars
comments

Seven Seas Tab

   
Artist : TNT
Song   : Seven Seas
Album  : Knights Of The New Thunder
Tuning : A half a step lower


This is one of TNT's best songs ever.
And there were one tab for the song, and that tab f*ckin'
s*cked.. So here's a 10 000ways much better tab for you guys^_^
So yeah, rock on   \m/ (>_<) \m/

Kings Of Seven Seas!

   Intro
Eb|---------------------------------------------------------|
Bb|---------------------------------------------------------|
Gb|--------12---12---------10--12-----------12---10---------|
Db|--------12---12---------10--12-----------12---10---------|
Ab|-8--10--10---10----------8--10----8--10--10----8---------|
Eb|-PM-PM---------------------------PM--PM------------------|

|-----------------------------------------------------------------Another----|
|-----------------------------------------------------------------guitar-----|
|--------12--------12---------10--12-----------12---10-10-10-------------|---|
|--------12--------12---------10--12-----------12---10-10-10------------(3)~-|
|-8--10--10--10-10-10----------8--10----8--10--10----8--8--8---------0-1-3~--|
|-PM-PM------PM-PM----------------------PM-PM----------------------------PH--|

|----------------------------------------------------------------------|
|----------------------------------------------------------------------|
|--------12--10--12---------10--12-----------12---10-10-10----Pick-----|
|--------12--10--12---------10--12-----------12---10-10-10----Scratch--|
|-8--10--10---8--10----------8--10----8--10--10----8--8--8----x\-------|
|-PM-PM-------------------------------PM-PM----------------------------|

|-------------------------------------------------------------------|
|-------------------------------------------------------------------|
|-10--12--12--10--12---------10--12-----------12---10-10-10---------|
|-10--12--12--10--12---------10--12-----------12---10-10-10---------|
|--8--10--10---8--10----------8--10----8--10--10----8--8--8---------|
|--------------------------------------PM-PM------------------------|

|-----------------------------------------------------------------|
|-----------------------------------------------------------------|
|--------12--------12---------10--12-----------12---10-10-10------|
|--------12--------12---------10--12-----------12---10-10-10------|
|-8--10--10--10-10-10----------8--10----8--10--10----8--8--8------|
|-PM-PM------PM-PM----------------------PM-PM---------------------|

|---------------------|
|-----------------6~--|
|-5bh/--\-3h5p3p0-----|
|---------------------|
|---------------------|
|---------------------|

 1st Verse
|--------------------------------------------------------------------|
|--------------------------------------------------------------------|
|--------12--------12---------10--12-----------12---10-10-10---------|
|--------12--------12---------10--12-----------12---10-10-10---------|
|-8--10--10--10-10-10----------8--10----8--10--10----8--8--8---------|
|-PM-PM------PM-PM----------------------PM-PM------------------------|

|---------------------------------------------------------|
|---------------------------------------------------------|
|--------12---12---------10--12-----------12---10---------|
|--------12---12---------10--12-----------12---10---------|
|-8--10--10---10----------8--10----8--10--10----8---------|
|-PM-PM----------------------------PM-PM------------------|

|---------------------------------------------------------------------|
|---------------------------------------------------------------------|
|--------12-----12---------10--12-----------12---10-10-10b1/----------|
|--------12-----12---------10--12-----------12---10-10--------10------|
|-8--10--10--8--10----------8--10----8--10--10----8--8--------10------|
|-PM-PM-----PM-----------------------PM-PM---------------------8------|

|-----------------------------------------------------------------------|
|-----------------------------------------------------------------------|
|--------12-----12---------10--12-----------12---10---------------------|
|--------12-----12---------10--12-----------12---10---------------------|
|-8--10--10--8--10----------8--10----8--10--10----8-------5-3-1---5-3-1-|
|-PM-PM-----PM-----------------------PM-PM------------------------------|

 1st Chorus
|-----------------------------------------|
|-----------------------------------------|
|-8-------10-------3----------------------|
|-8-------10-------3--------------PMPM----|
|-6-----xx-8-------1------------PM-0-1-5--|
|--------------------------3-----3--------|

|-------------------------------------------|
|-------------------------------------------|
|-8-------10-------12\----10-12\------------|
|-8-------10-------12\----10-12\----PMPM----|
|-6-----xx-8-----xx10\-----8-10\--PM-0-1-5--|
|----------------------------------3--------|

|--------------------------------------------------------------|
|--------------------------------------------------------------|
|-8-------10-------3-------3------------------8-------10-------|
|-8-------10-------3-------3----------PMPM----8-------10-------|
|-6--------8-------1---1-1-1--------PM-0-1-5--6--------8-------|
|----------------------PMPM----3-----3-------------------------|

|-------------------------------------------------------10-10--~------|
|--------------------------------------------------------------w/-bar-|
|--------12-----12---------10--12-----------12---10-------------------|
|--------12-----12---------10--12-----------12---10-------------------|
|-8--10--10--8--10----------8--10----8--10--10----8-------------------|
|-PM-PM-----PM-----------------------PM-PM----------------------------|

|---------------------------------------------------------------------|
|---------------------------------------------------------------------|
|--------12--------12---------10--12-----------12---10----------------|
|--------12--------12---------10--12-----------12---10------PH--------|
|-8--10--10--10-10-10----------8--10----8--10--10----8-------8~---x/--|
|-PM-PM------PM-PM----------------------PM-PM-------------------------|

 2nd Verse
|-----------------------------------------------------------|
|-----------------------------------------------------------|
|--------12-----12---------10--12-----------12---10---------|
|--------12-----12---------10--12-----------12---10---------|
|-8--10--10--8--10----------8--10----8--10--10----8---------|
|-PM-PM-----PM-----------------------PM-PM------------------|

|--------------------------------------------------------------|
|--------------------------------------------------------------|
|--------12--------12---------10--12-----------12---10---------|
|--------12--------12---------10--12-----------12---10---------|
|-8--10--10--10-10-10----------8--10----8--10--10----8---------|
|-PM-PM------PM-PM----------------------PM-PM------------------|

|-----------------------------------------------------------|
|-----------------------------------------------------------|
|--------12-----12---------10--12-----------12---10---------|
|--------12-----12---------10--12-----------12---10---------|
|-8--10--10--8--10----------8--10----8--10--10----8---------|
|-PM-PM-----PM-----------------------PM-PM------------------|

|---------------------------------------------------------------------------|
|---------------------------------------------------------------------------|
|--------12-----12---------10--12-----------12---10---Pick------------------|
|--------12-----12---------10--12-----------12---10---Scratch---------------|
|-8--10--10--8--10----------8--10----8--10--10----8------x\---5-3-1---5-3-1-|
|-PM-PM-----PM-----------------------PM-PM----------------------------------|
[ Tab from: http://www.guitartabs.cc/tabs/t/tnt/seven_seas_tab_ver_3.html ]
 2nd Chorus
|-----------------------------------------|
|-----------------------------------------|
|-8-------10-------3----------------------|
|-8-------10-------3--------------PMPM----|
|-6--------8-------1------------PM-0-1-5--|
|--------------------------3-----3--------|

|-------------------------------------------|
|-------------------------------------------|
|-8-------10-------12\----10-12\------------|
|-8-------10-------12\----10-12\----PMPM----|
|-6-----xx-8-----xx10\-----8-10\--PM-0-1-5--|
|----------------------------------3--------|

|-----------------------------------------------------------------------------|
|-----------------------------------------------------------------------------|
|-8-------10-------3-------3------------------8-------10-------12\------------|
|-8-------10-------3-------3----------PMPM----8-------10-------12\-------3-5\-|
|-6--------8-------1---1-1-1--------PM-0-1-5--6--------8-------10\-------3-5\-|
|---------------------PMPM-----3-----3-----------------------------------1-3\-|

 Bass Solo
|----------------|
|----------------|
|----------------|
|----------------|
|----------------|
|-3-1-3-1......--|

 Guitar Solo
|-----------x\-------------------------------------------------|
|------------w/-------------------------------------.----------|
|-12-12\-----bottleneck-----------------------------3--3-------|
|-12-12\--------------------------------------------3--3---5---|
|-10-10\----------------------4~-------------7~-----1--1---5---|
|------------------------3~--------0-3-5--6----------------3---|
                                  PMPMPM-PM
|------------Right hand---------|
|------------@------------------|
|-5bh/\~-/--h15~---p5u\-/b1~-/--|
|-------------------------------|
|-------------------------------|
|-------------------------------|

|-15-17-18~-----17-18-20~-----18-20-20b1/-\-18h20p18-----------10h13p10------|
|----------------------------------------------------18~-----x----------11~--|
|-----------------------------------------------------------x----------------|
|----------------------------------------------------------------------------|
|----------------------------------------------------------------------------|
|----------------------------------------------------------------------------|

|------------------------------18b1/\~---------w/-bar----|
|-------15-18b1/\~----15-18-15------------18---~---------|
|-15-17-----------------------------------17b1/~---------|
|--------------------------------------------------------|
|-----------------------------------------------------x\-|
|--------------------------------------------------------|

|--------------------------------------------------------------------------|
|--------------------------------------------------------------------------|
|---------------------------------------------------------15--x-x-17--x-x--|
|-----------------------------------16-16-17--x-x-19--x-x------------------|
|-----------------15--15--17-17-18-----------------------------------------|
|-15--17-18-17-18----------------------------------------------------------|

|--------------------------------------------------------------------------|
|-14bh/~---15-15-18-15-14--14-15-14-15-18-18-15-14-14-15-14-15-18-18-15-14-|
|--------------------------------------------------------------------------|
|--------------------------------------------------------------------------|
|--------------------------------------------------------------------------|
|--------------------------------------------------------------------------|

|-------------------------------------------------------------------|
|-14-15-14-15-18-15-14--18----------------18b1/--------------18b1/--|
|-----------------------------14-14-16-14--------14-14-16-14--------|
|-------------------------------------------------------------------|
|-------------------------------------------------------------------|
|-------------------------------------------------------------------|

|-------------------------------------------------------------|
|-------------18b1/--------------18b1/--------------18b1/~----|
|-14-14-16-14--------14-14-16-14--------14-14-16-14-----------|
|-------------------------------------------------------------|
|-------------------------------------------------------------|
|-------------------------------------------------------------|
|-------------------------------------------------------------|

|--------------------------------------------------------------------|
|-PH----w/bar---PH-w/-bar------------PH------------------------------|
|-5bh/--\-\-\---7b/-\-\-\-/----5b1/--3--PH-PH------------------------|
|--------------x------------------------5--3--------|>PM-<|-----w/---|
|-------------x-------------------------------5--4--3-1-----PH--bar--|
|-------------------------------------------------------1-3-3~--~----|

                           |->    Clean tone arpeggio    <-|
|--------------------------0-----------6/8--8-----0-----------|
|-.--------------.-----------3--------------6-------3---------|
|-3--3-----------3--3----------3----3-----------------3----3--|
|-3--3---5-------3--3---5--------------------------------5----|
|-1--1---5-------1--1---5-------------------------------------|
|--------3--------------3-------------------------------------|

|-----------------------------------------------------------------------|
|-.--------------.------------------------8-----------------------------|
|-3--3-----------3--3----------10--10---x-------------------------------|
|-3--3---5-------3--3---5------PM-----------------8\7~------------------|
|-1--1---5-------1--1---5-------------------10-10---------5-3-1---5-3-1-|
|--------3--------------3-------------------PM-PM-----------------------|

 Outro Chorus
|-----------------------------------------|
|-----------------------------------------|
|-8-------10-------3----------------------|
|-8-------10-------3--------------PMPM----|
|-6-----xx-8-----xx1------------PM-0-1-5--|
|--------------------------3-----3--------|

|-------------------------------------------|
|-------------------------------------------|
|-8-------10-------12\----10-12\------------|
|-8-------10-------12\----10-12\----PMPM----|
|-6-----xx-8-----xx10\-----8-10\--PM-0-1-5--|
|----------------------------------3--------|

|-----------------------------------------|
|-----------------------------------------|
|-8-------10-------3----------------------|
|-8-------10-------3--------------PMPM----|
|-6-----xx-8-----xx1------------PM-0-1-5--|
|--------------------------3-----3--------|

|-------------------------------------------|
|-------------------------------------------|
|-8-------10-------12\----10-12\------------|
|-8-------10-------12\----10-12\----PMPM----|
|-6-----xx-8-----xx10\-----8-10\--PM-0-1-5--|
|----------------------------------3--------|

|---------------------------------------------|
|---------------------------------------------|
|-8-------10-------3-------3------------------|
|-8-------10-------3-------3----------PMPM----|
|-6-----xx-8-----xx1---1-1-1--------PM-0-1-5--|
|---------------------PMPM-----3-----3--------|

|-------------------------------------------|
|-------------------------------------------|
|-8-------10-------12\----10-12\------------|
|-8-------10-------12\----10-12\----PMPM----|
|-6-----xx-8-------10\-----8-10\--PM-0-1-5--|
|----------------------------------3--------|

|-------------------------------------------------------------------------|
|-------------------------------------------------------------------------|
|-8-------10-------3----------------------8-------10-------12\----10-12\--|
|-8-------10-------3--------------PMPM----8-------10-------12\----10-12\--|
|-6--------8-------1------------PM-0-1-5--6--------8-------10\-----8-10\--|
|--------------------------3-----3----------------------------------------|


| /  slide up
| \  slide down
| h  hammer-on
| p  pull-off
| ~  vibrato
| +  harmonic
| x  Mute note
===============================================================================
Comments