Tnt - Seven Seas Chords & Tabs

 

Seven Seas Chords & Tabs

Tnt Chords & Tabs

Version: 2 Type: Tab 0 ratings
1 star 2 stars 3 stars 4 stars 5 stars
comments

Seven Seas Tab

              ----------------------------------------------
                         seven seas by TNT
              ----------------------------------------------

     tabbed by:ruben celius
     e-mail:r_celius@hotmail.com


   intro + vers
e|-------------------------------------------------------------------------|
b|-------------------------------------------------------------------------|
g|-------------------------------------------------------------------------|
d|----------11-----9-/-11-----------11--9----------------------------------|
a|--7--9-----9-----7-/-9---7--9-----9---7----------------------------------|
e|-------------------------------------------------------------------------|
    .  .                   .  .

[ Tab from: http://www.guitartabs.cc/tabs/t/tnt/seven_seas_tab_ver_2.html ]
e|-------------------------------------------------------------------------|
b|-------------------------------------------------------------------------|
g|-------------------------------------------------------------------------|
d|------------11/9--11-----9--11----------11--9----------------------------|
a|--7--9-------9/7---9-----7---9---7--9----9--7----------------------------|
e|-------------------------------------------------------------------------|
    .  .                           .  .


   fill in
e|-------------------------|
b|-------------------------|
g|----4b-p2h4p2----2---4b--|
d|--------------4----------|
a|-------------------------|
e|-------------------------|

   ref:
e|------------------------------------------------------------|
b|------------------------------------------------------------|
g|------------------------------------------------------------|
d|---------------------7---9-----2--------2-------------------|
a|--4--2--0--4--2--0---5---7-----0--------0---4---------2-4---|
e|--------------------------------------------2---2-4---------|


e|----------------------------------------------------------------|
b|----------------------------------------------------------------|
g|----------------------------------------------------------------|
d|--7---9---9----11----9----11-----------------7---9---2-------2--|
a|--5---7---7----9-----7----9------------2-4---5---7---0--0-0--0--|
e|---------------------------------2-4----------------------------|

e|----------------------------|
b|----------------------------|         and back to vers
g|----------------------------|
d|---------------------7--9---|
a|--4--------2-4-------5--7---|
e|--2---2-4-------------------|
Comments