Tnt - Seven Seas Chords & Tabs

 

Seven Seas Chords & Tabs

Tnt Chords & Tabs

Version: 1 Type: Tab 0 ratings
1 star 2 stars 3 stars 4 stars 5 stars
comments

Seven Seas Tab

Standar Tuning


   Intro
Eb|---------------------------------------------------------
Bb|---------------------------------------------------------
Gb|--------11---11----------9--11-----------11----9---------
Db|--------11---11----------9--11-----------11----9---------
Ab|-7---9---9----9----------7---9----7---9---9----7---------
Eb|-PM-PM---------------------------PM--PM------------------

|-----------------------------------------------------------------Another----
|-----------------------------------------------------------------guitar-----
|--------11--------11----------9--11-----------11----9--9--9-------------|---
|--------11--------11----------9--11-----------11----9--9--9------------(2)~-
|-7---9---9---9--9--9----------7---9----7---9---9----7--7--7-----------0-2~--
|-PM-PM------PM-PM----------------------PM-PM------------------------5---PH--

|----------------------------------------------------------------------
|----------------------------------------------------------------------
|--------11---9--11----------9--11-----------11----9--9--9----Pick-----
|--------11---9--11----------9--11-----------11----9--9--9----Scratch--
|-7---9---9---7---9----------7---9----7---9---9----7--7--7----x\-------
|-PM-PM-------------------------------PM-PM----------------------------

|-------------------------------------------------------------------
|-------------------------------------------------------------------
|--9--11--11---9--11----------9--11-----------11----9--9--9---------
|--9--11--11---9--11----------9--11-----------11----9--9--9---------
|--7---9---9---7---9----------7---9----7---9---9----7--7--7---------
|--------------------------------------PM-PM------------------------

|-----------------------------------------------------------------
|-----------------------------------------------------------------
|--------11--------11----------9--11-----------11----9--9--9------
|--------11--------11----------9--11-----------11----9--9--9------
|-7---9---9---9--9--9----------7---9----7---9---9----7--7--7------
|-PM-PM------PM-PM----------------------PM-PM---------------------

|---------------------
|-----------------5~--
|-4bh/--\-2h4p2p0-----
|---------------------
|---------------------
|---------------------

 1st Verse
|--------------------------------------------------------------------
|--------------------------------------------------------------------
|--------12--------11----------9--11-----------11----9--9--9---------
|--------12--------11----------9--11-----------11----9--9--9---------
|-7---9---9---9--9--9----------7---9----7---9---9----7--7--7---------
|-PM-PM------PM-PM----------------------PM-PM------------------------

|---------------------------------------------------------
|---------------------------------------------------------
|--------11---11----------9--11-----------11----9---------
|--------11---11----------9--11-----------11----9---------
|-7---9---9----9----------7---9----7---9---9----7---------
|-PM-PM----------------------------PM-PM------------------

|---------------------------------------------------------------------
|---------------------------------------------------------------------
|--------11-----11----------9--11-----------11----9--9--9b0/----------
|--------11-----11----------9--11-----------11----9--9---------9------
|-7---9---9--8---9----------7---9----7---9---9----7--7---------9------
|-PM-PM-----PM-----------------------PM-PM---------------------7------

|-----------------------------------------------------------------------
|-----------------------------------------------------------------------
|--------11-----11----------9--11-----------11----9---------------------
|--------11-----11----------9--11-----------11----9---------------------
|-7---9---9--9---9----------7---9----7---9---9----7-------4-2-0---4-2-4-
|-PM-PM-----PM-----------------------PM-PM------------------------------

 1st Chorus
|-----------------------------------------
|-----------------------------------------
|-7--------9------------------------------
|-7--------9-------7----------------------
|-5-----xx-7-------7------------PMPMPM-4--
|------------------5-------2-----2-4-5----

|-------------------------------------------
|-------------------------------------------
|-7--------9-------11\-----9-11\------------
|-7--------9-------11\-----9-11\------------
|-5------xx7-----xx-9\-----7--9\--PMPMPM-4--
|----------------------------------2-4-5----

|--------------------------------------------------------------
|--------------------------------------------------------------
|-7--------9----------------------------------7--------9-------
|-7--------9-------7-------7------------------7--------9-------
|-5--------7-------7-------7--------PMPMPM-4--5--------7-------
|------------------5---5-5-5--2-----2--4-5---------------------

|--------------------------------------------------------9--9--~------
|--------------------------------------------------------------w/-bar-
|--------11-----11----------9--11-----------11----9-------------------
|--------11-----11----------9--11-----------11----9-------------------
|-7---9---9--7---9----------7---9----7---9---9----7-------------------
|-PM-PM-----PM-----------------------PM-PM----------------------------

|---------------------------------------------------------------------
|---------------------------------------------------------------------
|--------11--------11----------9--11-----------11----9----------------
|--------11--------11----------9--11-----------11----9------PH--------
|-7---9---9---9--9--9----------7---9----7---9---9----7-------7~---x/--
|-PM-PM------PM-PM----------------------PM-PM-------------------------
[ Tab from: http://www.guitartabs.cc/tabs/t/tnt/seven_seas_tab.html ]
 2nd Verse
|-----------------------------------------------------------
|-----------------------------------------------------------
|--------11-----11----------9--11-----------11---10---------
|--------11-----11----------9--11-----------11---10---------
|-7---9---9--7---9----------7---9----7---9---9----8---------
|-PM-PM-----PM----------------------------------------------

|--------------------------------------------------------------
|--------------------------------------------------------------
|--------11--------11----------9--11-----------11----9---------
|--------11--------11----------9--11-----------11----9---------
|-7---9---9---9--9--9----------7---9----7---9---9----7---------
|-PM-PM------PM-PM----------------------PM-PM------------------

|-----------------------------------------------------------
|-----------------------------------------------------------
|--------11-----11----------9--11-----------11----9---------
|--------11-----11----------9--11-----------11----9---------
|-7---9---9--7---9----------7---9----7---9---9----7---------
|-PM-PM-----PM-----------------------PM-PM------------------

|---------------------------------------------------------------------------
|---------------------------------------------------------------------------
|--------11-----11----------9--11-----------11----9---Pick------------------
|--------11-----11----------9--11-----------11----9---Scratch---------------
|-7---9---9--7---9----------7---9----7---9---9----7------x\-----------------
|-PM-PM-----PM-----------------------PM-PM--------------------9-7-5---9-7-5-

 2nd Chorus
|-----------------------------------------
|-----------------------------------------
|-9--------9------------------------------
|-9--------9-------7----------------------
|-7--------7-------7-------------PMPMPM-4--
|------------------5-------2-----2-4-5----

|-------------------------------------------
|-------------------------------------------
|-7--------9-------11\-----9-11\------------
|-7--------9-------11\-----9-11\------------
|-5-----xx-7-----xx-9\-----7--9\--PMPMPM-4--
|----------------------------------2-4-5----

|-----------------------------------------------------------------------------
|-----------------------------------------------------------------------------
|-7--------9----------------------------------7--------9-------11\------------
|-7--------9-------7-------7------------------7--------9-------11\-------2-4\-
|-5--------7-------7-------7--------PMPMPM-4--5--------7--------9\-------2-4\-
|------------------5---5-5-5---2-----2-4-5-------------------------------0-2\-

Her there's a bass solo... i'm not sure how it goes 
but i think it's something like this

G|--------------
D|--------------
A|--------------
E|-2-0-1-2-0-1-2 just keep repeating that over and over again...


 Guitar Solo
|-----------x\-------------------------------------------------
|------------w/------------------------------------------------
|-11-11\-----bottleneck----------------------------------------
|-11-11\--------------------------------------------7--7---4---
|--9--9\----------------------3~-------------6~-----7--7---4---
|------------------------2~--------0-2-4--5---------5--5---2---
                                  PMPMPM-PM
|------------Right hand---------
|------------@------------------
|-4bh/\~-/--h14~---p4u\-/b0~-/--
|-------------------------------
|-------------------------------
|-------------------------------

|-14-16-17~-----16-17-19~-----17-19-19b0/-\-17h19p17------------9h12p9-------
|----------------------------------------------------17~-----x----------10~--
|-----------------------------------------------------------x----------------
|----------------------------------------------------------------------------
|----------------------------------------------------------------------------
|----------------------------------------------------------------------------

|------------------------------17b0/\~---------w/-bar----
|-------14-17b0/\~----14-17-14------------17---~---------
|-14-16-----------------------------------16b0/~---------
|--------------------------------------------------------
|-----------------------------------------------------x\-
|--------------------------------------------------------

|--------------------------------------------------------------------------
|--------------------------------------------------------------------------
|---------------------------------------------------------14--x-x-16--x-x--
|-----------------------------------15-15-16--x-x-18--x-x------------------
|-----------------14--14--16-16-17-----------------------------------------
|-14--16-17-16-17----------------------------------------------------------

|--------------------------------------------------------------------------
|-13bh/~---14-14-17-14-13--13-14-13-14-17-17-14-13-13-14-13-14-17-17-14-13-
|--------------------------------------------------------------------------
|--------------------------------------------------------------------------
|--------------------------------------------------------------------------
|--------------------------------------------------------------------------

|-------------------------------------------------------------------
|-13-14-13-14-17-14-13--17----------------17b0/--------------17b0/--
|-----------------------------13-13-15-13--------13-13-15-13--------
|-------------------------------------------------------------------
|-------------------------------------------------------------------
|-------------------------------------------------------------------

|-------------------------------------------------------------
|-------------17b0/--------------17b0/--------------17b0/~----
|-13-13-15-13--------13-13-15-13--------13-13-15-13-----------
|-------------------------------------------------------------
|-------------------------------------------------------------
|-------------------------------------------------------------
|-------------------------------------------------------------

|--------------------------------------------------------------------
|-PH----w/bar---PH-w/-bar------------PH------------------------------
|-4bh/--\-\-\---6b/-\-\-\-/----4b0/--2--PH-PH------------------------
|--------------x------------------------4--2--------|>PM-    Clean tone arpeggio    
Comments