Tnt - Intuition Chords & Tabs

 

Intuition Chords & Tabs

Tnt Chords & Tabs

Version: 1 Type: Tab 0 ratings
1 star 2 stars 3 stars 4 stars 5 stars
comments

Intuition Tab

   
Okey, I really liked this song! And there were no tabs for it, so
I decided myself to tab it!
Hail TNT, Kings Of Seven F*ckin Seas!


Tuning : A half step lower


Riff 1                    Riff 2
                          (Palm mute on 6th string)
|-----------------------|----------|
|-----------------------|-----8----|
|-----------------------|-----9----|
|-----------------------|-----9----|
|-10-\-5/7-\-2/5--------|-----7----|
|-----------------------|-0-0------|


Intro (Mute on E and A string):
|--------------------------------------------------------------------------|
|--------------------------------------------------------------------------|
|-12-------12---12-11----12---11----12---11----12-----12---12-11---12---11-|
|-12-------12---12-12----12---12----12---12----12-----12---12-12---12---12-|
|----10-10------------10---------10---------10-----------------------------|
|-------------------------------------------------0-0------------0---------|

|----------------------------------------------------------------------------|
|----------------------------------------------------------------------------|
|---12---11----12-----12---12-11---12---11---12---11---11----12----5---5-----|
|---12---12----12-----12---12-12---12---12---12---12---12----12----5---5-----|
|------------------------------------------------------------------3---3-----|
|-0---------8-----8-8------------8---------8---------8-----------------------|

Verse
|---------------------------------------------------------------|
|-5-----------------------------8-------------------------------|
|-4------7--5----7-------5--7-5-7--------7-------5-------7------|
|-2------7--5----7-------5--7-5-5--------7-------5-------7------|
|--------5--3----5-------3--5-3----------5-------3-------5------|
|---------------------------------------------------------------|

Pre chorus
|----------------------------------------------------------------------------|
|-5----------------------------8p7------------5------------------------------|
|-4-------7--7-----5-------7--------7---7-----4--------7--------3--------2---|
|-5-------7--7-----5---------7--------7---7---5--------7--------3--------2---|
|--------------------------pmpm-----pmpmpmpm--------------------1--------0---|
|----------------------------------------------------------------------------|

Chorus - repeat intro

Guitar solo                        (repeat 2 times)
|--------------------------------------------------|
|--------------------------------------------------|
|-12p11-11-11-11h12-12-12-11h12-12-12-11h12-12-12--|
|-------pm-pm-------pm-pm-------pm-pm-------pm-pm--|
|--------------------------------------------------|
|--------------------------------------------------|

                                   (repeat 2 times)
|--------------------------------------------------|
|--------------------------------------------------|
|-16h14-14-14-14h16-16-16-14h16-16-16-14h16-16-16--|
|-------pm-pm-------pm-pm-------pm-pm-------pm-pm--|
|--------------------------------------------------|
|--------------------------------------------------|

|--------------------------------------------------------|
|------------------------8-------------------------------|
|-17---16--12---6----9-------7--------8-------17--16-x-x-|
|--------------------------------------------------------|
|--------------------------------------------------------|
|--------------------------------------------------------|
(Guitar 2 - play this part if you want a harmony as on the album)
|-15-----------------------------------------------------|
|------15--12--------------------------------------------|
|--------------------12--15--11--------------------------|
|--------------14----------------------------------------|
|--------------------------------------------------------|
|--------------------------------------------------------|
[ Tab from: http://www.guitartabs.cc/tabs/t/tnt/intuition_tab.html ]
|-------------------------15p14-14-14-20p19-19-19----19---------16-17-18c/--|
|-------------17p16-16-16-------pm-pm-------pm-pm---------------------------|
|-17p16-16-16-------pm-pm---------------------------------------------------|
|-------pm-pm---------------------------------------------------------------|
|---------------------------------------------------------------------------|
|---------------------------------------------------------------------------|
|
|----------------------------------------------------24---------21-22-23c/--|
|---------------------------------------------------------------------------|
|---------------------------------------------------------------------------|
|---------------------------------------------------------------------------|
|---------------------------------------------------------------------------|
|---------------------------------------------------------------------------|

  |-> with h & p                                                         <-|
|-15-14-15-14-12-10--16-14-16-14-12-10--17-14-17-14-12-10--16-14-16-14-12-10-|
|-T-----T------------T-----T------------T-----T------------T-----T-----------|
|-(T = Tap with the edge of the pick in your right hand)---------------------|
|----------------------------------------------------------------------------|
|----------------------------------------------------------------------------|
|----------------------------------------------------------------------------|

|-19-16----------------------------------------------------------------------|
|-------19-17--------19-16-14-12-16p14p12------------------------------------|
|-------------16-----------------T--------14p13------13-14-13-12-------0-9---|
|---------------------------------------------------------------------pm-----|
|----------------------------------------------------------------------------|
|----------------------------------------------------------------------------|
|
|----------------------------------------------------------------------------|
|--------------------------------------------12------12-14-12-12-------------|
|------------------------------------------------------------------------12--|
|----------------------------------------------------------------------------|
|----------------------------------------------------------------------------|
|----------------------------------------------------------------------------|

Push wammy bar a little bit         Right hand tap on 15th fret on 2nd string,
          |                         then choke up with your left hand holding
          |                         8th fret, then choke down while your right     |
          |                         hand finger is not moving from 14th fret.
          |                                                      |
|---------V--------------------------------------------------(---|---)---|
|-7-------7--8--7-10----8-7-------/8----5--------5-h-7-h-8-h-15-b/--\----|
|---------------------------7\4------------------------------T-----------|
|------------------------------------------------------------------------|
|------------------------------------------------------------------------|
|------------------------------------------------------------------------|
(Guitar 2 - harmony part)
|------------------------------------------------------------------------|
|-10-----10 12 10-13---10--------/10----8--------8-h10-h12-h-20-b/--\----|
|------------------------11 9\7------------------------------T-----------|
|------------------------------------------------------------------------|
|------------------------------------------------------------------------|
|------------------------------------------------------------------------|

Repeat pre chorus and chorus


| /  slide up
| \  slide down
| h  hammer-on
| p  pull-off
| ~  vibrato
| +  harmonic
| x  Mute note
===============================================================================
Comments