Tnt - 10000 Lovers Chords & Tabs

 

10000 Lovers Chords & Tabs

Tnt Chords & Tabs

Version: 1 Type: Bass Tab 0 ratings
1 star 2 stars 3 stars 4 stars 5 stars
comments

10000 Lovers Bass Tab

   
                                 10000 Lovers                                   

As I've alredy have said, there's almost none TNT tabs on Ultimate-Guitar..
And 10 000Lovers is one f*king great power ballad by TNT, and since our band are
covering this song, I've tabbed it, so.. here it is.. I'll teach YOU guys
my version;-D

Happy bassing, and good luck!


Tuning:                                                            
F#||------------------|------------------|------------------|
C#||------------------|------------------|------------------|
G#||------------------|------------------|------------------|
D#||------------------|------------------|------------------|


                                                                     
--------------------|----------------------|------------------------|
--------------------|----------------------|------------------------|
--------------------|----------------------|---------------0--2-----|
-----------2---3----|--0----0----0----0----|--0----0----0--------3--|


                                                                       
-----------------------|-----------------------|----------------------|
-----------------------|-----------------------|----------------------|
--------------------0--|-----------------------|----------------------|
--0----0----0----0-----|--------0--3-2---5-3---|--0----0----0----0----|


                                                                       
------------------------|-----------------------|---------------------|
------------------------|-----------------------|---------------------|
---------------0--2-----|--------------------0--|---------------------|
--0----0----0--------3--|--0----0----0----0-----|----3--2--0----------|


                                                      
--------------------------|--------------------------|
--------------------------|--------------------------|
--4---4-4---4-------------|--------------2---2-2---2-|
--------------5---5-5---5-|--0---0-0---0-------------|


                                                                            
--------------------------|---------------------|--------------------------|
--------------------------|---------------------|--------------------------|
--4---4-4---4-------------|----2------0--2------|--4---4-4---4-------------|
--------------5---5-5--0--|---------------------|--------------5---5-5---5-|


                                                          
--------------------------|------------------------------|
--------------------------|------------------------------|
--------------2---2-2---2-|--4--4-4-4--4-4-4--4-4-4--4-4-|
--0---0-0---0-------------|------------------------------|


                                                                             
------------------------------|----------------------|----------------------|
------------------------------|----------------------|----------------------|
--5--5-5-5--5-5-5--5-5-5--5-5-|------------7--7------|--5--5------7--7------|
------------------------------|--5--5----------------|----------------------|


                                                                         
----------------------|--------------------------|----------------------|
----------------------|--------------------------|----------------------|
------------7--7------|--------------------------|------------7--7------|
--5--5----------------|--2--2------2-4-5-4-5-4---|--5--5----------------|


                                                                    
----------------------|-----------------------|--------------------|
----------------------|-----------------------|--------------------|
--5--5------7--7------|------------7--7-------|--------------------|
----------------------|--5--5--------------3--|----3----3----------|


                                                                        
----------------------|------------------------|-----------------------|
----------------------|------------------------|-----------------------|
----------------------|---------------0--2-----|--------------------0--|
--0----0----0----0----|--0----0----0--------3--|--0----0----0----0-----|


                                                                            
---------------------|--------------------------|--------------------------|
---------------------|--------------------------|--------------------------|
---------------------|--4---4-4---4-------------|--------------2---2-2---2-|
----3--2--0----------|--------------5---5-5---5-|--0---0-0---0-------------|


                                                                            
--------------------------|---------------------|--------------------------|
--------------------------|---------------------|--------------------------|
--4---4-4---4-------------|----2------0--2------|--4---4-4---4-------------|
--------------5---5-5--0--|---------------------|--------------5---5-5---5-|

[ Tab from: http://www.guitartabs.cc/tabs/t/tnt/10000_lovers_btab.html ]
                                                          
--------------------------|------------------------------|
--------------------------|------------------------------|
--------------2---2-2---2-|--4--4-4-4--4-4-4--4-4-4--4-4-|
--0---0-0---0-------------|------------------------------|


                                                                             
------------------------------|----------------------|----------------------|
------------------------------|----------------------|----------------------|
--5--5-5-5--5-5-5--5-5-5--5-5-|------------7--7------|--5--5------7--7------|
------------------------------|--5--5----------------|----------------------|


                                                                         
----------------------|--------------------------|----------------------|
----------------------|--------------------------|----------------------|
------------7--7------|--------------------------|------------7--7------|
--5--5----------------|--2--2------2-4-5-4-5-4---|--5--5----------------|


                                                                     
----------------------|----------------------|----------------------|
----------------------|----------------------|----------------------|
--5--5------7--7------|------------7--7------|----------------------|
----------------------|--5--5----------------|--2--2------2----4----|


                                                                      
----------------------|----------------------|-----------------------|
----------------------|----------------------|-----------------------|
------------7--7------|--5--5------7--7------|------------7--7-------|
--5--5----------------|----------------------|--5--5--------------3--|


                                                                             
---------------------|-------------------------|----------------------------|
---------------------|-------------------------|----------------------------|
-------------------0-|-----0-0---0-0---0-0---0-|--0---0-0---0-0---0-0-----0-|
----3----3-----------|-------------------------|----------------------3-0---|


                                                                              
-------------------------|----------------------------|----------------------|
-------------------------|----------------------------|----------------------|
-----0-0---0-0---0-0---0-|--0---0-0---0-0---0-0-0-----|----------------------|
-------------------------|------------------------3-2-|--0----0----0----0----|


                                                        
------------------------|------------------------------|
------------------------|------------------------------|
---------------0--2-----|--4--4-4-4--4-4-4--4-4-4--4-4-|
--0----0----0--------3--|------------------------------|


                                                                             
------------------------------|----------------------|----------------------|
------------------------------|----------------------|----------------------|
--5--5-5-5--5-5-5--5-5-5--5-5-|------------7--7------|--5--5------7--7------|
------------------------------|--5--5----------------|----------------------|


                                                                         
----------------------|--------------------------|----------------------|
----------------------|--------------------------|----------------------|
------------7--7------|--------------------------|------------7--7------|
--5--5----------------|--2--2------2-4-5-4-5-4---|--5--5----------------|


                                                                      
----------------------|-----------------------|----------------------|
----------------------|-----------------------|----------------------|
--5--5------7--7------|-----------------------|----------------------|
----------------------|--5--5------5--5--5----|--0----0----0----0----|


                                                                       
------------------------|----------------------|----------------------|
------------------------|----------------------|----------------------|
---------------0--2--0--|------------9--9------|--7--7------9--9------|
--0----0----0-----------|--7--7----------------|----------------------|


                                                                         
----------------------|--------------------------|----------------------|
----------------------|--------------------------|----------------------|
------------9--9------|--------------------------|------------9--9------|
--7--7----------------|--4--4------4-6-7-6-7-6---|--7--7----------------|


                                                                      
----------------------|------------------------|--------------------||
----------------------|------------------------|--------------------||
--7--7------9--9------|------------9--9--------|--------------------||
----------------------|--7--7--------------4-4-|--4--4--------------||



| /  slide up
| \  slide down
| h  hammer-on
| p  pull-off
| ~  vibrato
| +  harmonic
| x  Mute note
==========================================================================
Comments