Tm Revolution - Resonance Chords & Tabs

 

Resonance Chords & Tabs

Tm Revolution Chords & Tabs

Version: 3 Type: Tab

Resonance Tab

   
-----------------------------------------------------------------------------
			     Resonance - TM Revolution
-----------------------------------------------------------------------------

Tabbed by: MetalSynkk
Email: kirill-lokshin@hotmail.com

Tuning: Standard (E A D G B E)

Riff 1


e|---------------------|---17--16~---|
B|---------------------|-------------|
G|---6-6---------------|-------------|
D|---6-6---7-7---9-9---|-(high part)-|
A|---4-4---7-7---9-9---|-(optional)--|
E|---------5-5---7-7---|-------------|


Riff 2


e|----------------------------------|     e|-------------------|
B|----------------------------------|     B|-------------------|
G|----------------------------------| 3x  G|-------------------|
D|----------------------------------|     D|-------------------|
A|----------------4----4-6-7-6-4----|     A|----------------4--|
E|---5-4-5-7--5-7----7-----------7--|     E|---5-4-5-7--5-7----|


Riff 3 (played during high bridge by second guitar)
 

e|---------------------------------------------------------------|
B|---------------------------------------------------------------|
G|---------------------------------------------------------------|
D|---------------------------------------------------------------|
A|---3-3-6-3-3-6-3--6-6-4-6-4-6-4--4-4-6-4-4-6-4--3-3-6-3-3-6-3--|
E|---------------------------------------------------------------|


Chords 1


E|----------------|-----------|
B|----------------|-----------|
G|----------------|-----------|
D|---7---9---11---|---7---9---|
A|---7---9---11---|---7---9---|
E|---5---7---9----|---5---7---|


High Bridge

[ Tab from: http://www.guitartabs.cc/tabs/t/tm_revolution/resonance_tab_ver_3.html ]
e|--15---18---16---13-15--|--15---18---16---18-15--|
B|------------------------|------------------------|
G|------------------------|------------------------|
D|------------------------|------------------------|
A|------------------------|------------------------|
E|------------------------|------------------------|


Solo 1


e|---17b---16b--|
B|--------------|
G|--------------|
D|--------------|
A|--------------|
E|--------------|

e|--14-0-0-0-16-0-0-0-17-0-0-0-16-0-0-0-12-0-0-0-14-0-0-0-16-0-0-0-14-0-0-0-|
B|--------------------------------------------------------------------------|
G|--------------------------------------------------------------------------|
D|--------------------------------------------------------------------------|
A|--------------------------------------------------------------------------|
E|--------------------------------------------------------------------------|

e|--12b---19b--|--12--14-16-|--12b---19b---12--14-16-|--14-16-14-17--16--|
B|-------------|------------|------------------------|-------------------|
G|-------------|------------|------------------------|-------------------|
D|-------------|------------|------------------------|-------------------|
A|-------------|------------|------------------------|-------------------|
E|-------------|------------|------------------------|-------------------|



Order:


Riff 1
Riff 2 2x
High Bridge (Guitar 2: Riff 3 2x)
Riff 3 4x
Chords 1
Riff 1
Riff 2
High Bridge (Guitar 2: Riff 3 2x)
Riff 3 4x
Chords 1
Solo 1
Riff 2 2x
High Bridge 3x (Guitar 2: Riff 3 6x)

************************************

| /   slide up
| \   slide down
| h   hammer-on
| p   pull-off
| ~   vibrato
| +   harmonic
| x   Mute note
| B   Bend
| pb  Pre-bend
| br  Bend release
| pbr Pre-bend release
| brb Bend release bend

************************************