Tlc - Unpretty Chords & Tabs

 

Unpretty Chords & Tabs

Tlc Chords & Tabs

Version: 2 Type: Tab 0 ratings
1 star 2 stars 3 stars 4 stars 5 stars
comments

Unpretty Tab

   
TLC-Unpretty
Tabsmail-cifrastabs@zipmail.com.br
     TLC-Unpretty


C G7 Am  C/E


 C         G7      Am                    

|----------------------|
|---1-------1----------|       
|3---------------------|          
|1------1----------1---|
|------------------2---|
|------------------2---|

[ Tab from: http://www.guitartabs.cc/tabs/t/tlc/unpretty_tab_ver_2.html ]
   Em5+     F     Gm6

|----------------------|
|---1-------1----------| 
|---0-------2----------|
|---2-------3----------|
|-----------3----------|
|---3-------------3----|


  C       G7     F 

|-3--------------------|
|-1--------------1-----|
|----------------2-----|
|----------------3-----|
|-3-------2------3-----|
|---------3------------|


TabsMail...
http://tabsmail.8m.com

Comments