Tlc - Turntable Chords & Tabs

 

Turntable Chords & Tabs

Tlc Chords & Tabs

Version: 1 Type: Tab 0 ratings
1 star 2 stars 3 stars 4 stars 5 stars
comments

Turntable Tab

“Turntable”
by TLC
tabbed by Joey Duncan


+ - Rake Pick
/ - Slide
^ - Pulloff/Hammeron
% - Hard Pause
pm- Palm Mute
nh- Natural Harmonic
ah- Artificial Harmonic

Tuning - Normal
[ Tab from: http://www.guitartabs.cc/tabs/t/tlc/turntable_tab.html ]
		+		%			%			%
e----------------|----------------|----------------|----------------|
B----------------|----------------|----------------|----0-----------|
G-------2---2----|------2-2---2---|-2---2-2---2---2|2---------------|
D------------2---|----------2---2-|---2-----2---2--|--2-------------|
A----2--------2--|--2-------------|----------------|----------------|
E--0-----------0-|----------------|----------------|----------------|
		+		%			%			
e----------------|----------------|----------------|----------------|
B----------------|----------------|----------------|----------------|
G------2---2-----|----------------|----------------|----------------|
D-----------2----|------5---5---5-|4-4-4---4---4---|---------2------|
A---2--------2---|--2-----5---5-5-|5-5---5---5-----|----2-----------|
E-0-----------0--|----------------|----------------|0---------------|
Comments